  0
SECTION
  2
HEADER
  9
$ACADVER
  1
AC1015
  9
$ACADMAINTVER
 70
     6
  9
$DWGCODEPAGE
  3
ANSI_1254
  9
$INSBASE
 10
0.0
 20
0.0
 30
0.0
  9
$EXTMIN
 10
0.0
 20
0.0
 30
0.0
  9
$EXTMAX
 10
279.4
 20
215.9
 30
0.0
  9
$LIMMIN
 10
0.0
 20
0.0
  9
$LIMMAX
 10
279.4
 20
215.9
  9
$ORTHOMODE
 70
     0
  9
$REGENMODE
 70
     1
  9
$FILLMODE
 70
     1
  9
$QTEXTMODE
 70
     0
  9
$MIRRTEXT
 70
     1
  9
$LTSCALE
 40
1.0
  9
$ATTMODE
 70
     1
  9
$TEXTSIZE
 40
3.5
  9
$TRACEWID
 40
1.0
  9
$TEXTSTYLE
  7
Standard
  9
$CLAYER
  8
0
  9
$CELTYPE
  6
ByLayer
  9
$CECOLOR
 62
   256
  9
$CELTSCALE
 40
1.0
  9
$DISPSILH
 70
     0
  9
$DIMSCALE
 40
1.0
  9
$DIMASZ
 40
3.5
  9
$DIMEXO
 40
1.0
  9
$DIMDLI
 40
3.75
  9
$DIMRND
 40
0.0
  9
$DIMDLE
 40
0.0
  9
$DIMEXE
 40
1.0
  9
$DIMTP
 40
0.0
  9
$DIMTM
 40
0.0
  9
$DIMTXT
 40
3.5
  9
$DIMCEN
 40
2.5
  9
$DIMTSZ
 40
0.0
  9
$DIMTOL
 70
     0
  9
$DIMLIM
 70
     0
  9
$DIMTIH
 70
     1
  9
$DIMTOH
 70
     1
  9
$DIMSE1
 70
     0
  9
$DIMSE2
 70
     0
  9
$DIMTAD
 70
     1
  9
$DIMZIN
 70
     0
  9
$DIMBLK
  1

  9
$DIMASO
 70
     1
  9
$DIMSHO
 70
     1
  9
$DIMPOST
  1

  9
$DIMAPOST
  1

  9
$DIMALT
 70
     0
  9
$DIMALTD
 70
     3
  9
$DIMALTF
 40
0.0393700787
  9
$DIMLFAC
 40
1.0
  9
$DIMTOFL
 70
     1
  9
$DIMTVP
 40
0.0
  9
$DIMTIX
 70
     0
  9
$DIMSOXD
 70
     0
  9
$DIMSAH
 70
     0
  9
$DIMBLK1
  1

  9
$DIMBLK2
  1

  9
$DIMSTYLE
  2
ISO-25
  9
$DIMCLRD
 70
     0
  9
$DIMCLRE
 70
     0
  9
$DIMCLRT
 70
     0
  9
$DIMTFAC
 40
1.0
  9
$DIMGAP
 40
1.524
  9
$DIMJUST
 70
     0
  9
$DIMSD1
 70
     0
  9
$DIMSD2
 70
     0
  9
$DIMTOLJ
 70
     0
  9
$DIMTZIN
 70
     0
  9
$DIMALTZ
 70
     0
  9
$DIMALTTZ
 70
     0
  9
$DIMUPT
 70
     0
  9
$DIMDEC
 70
     2
  9
$DIMTDEC
 70
     2
  9
$DIMALTU
 70
     2
  9
$DIMALTTD
 70
     3
  9
$DIMTXSTY
  7
Standard
  9
$DIMAUNIT
 70
     0
  9
$DIMADEC
 70
     2
  9
$DIMALTRND
 40
0.0
  9
$DIMAZIN
 70
     0
  9
$DIMDSEP
 70
    44
  9
$DIMATFIT
 70
     3
  9
$DIMFRAC
 70
     0
  9
$DIMLDRBLK
  1

  9
$DIMLUNIT
 70
     2
  9
$DIMLWD
 70
    -2
  9
$DIMLWE
 70
    -2
  9
$DIMTMOVE
 70
     0
  9
$LUNITS
 70
     2
  9
$LUPREC
 70
     2
  9
$SKETCHINC
 40
1.0
  9
$FILLETRAD
 40
10.0
  9
$AUNITS
 70
     0
  9
$AUPREC
 70
     2
  9
$MENU
  1
.
  9
$ELEVATION
 40
0.0
  9
$PELEVATION
 40
0.0
  9
$THICKNESS
 40
0.0
  9
$LIMCHECK
 70
     0
  9
$CHAMFERA
 40
0.0
  9
$CHAMFERB
 40
0.0
  9
$CHAMFERC
 40
0.0
  9
$CHAMFERD
 40
0.0
  9
$SKPOLY
 70
     0
  9
$TDCREATE
 40
2459741.588727292
  9
$TDUCREATE
 40
2459741.463727292
  9
$TDUPDATE
 40
2459741.588729618
  9
$TDUUPDATE
 40
2459741.463729618
  9
$TDINDWG
 40
0.0000000116
  9
$TDUSRTIMER
 40
0.0000000116
  9
$USRTIMER
 70
     1
  9
$ANGBASE
 50
0.0
  9
$ANGDIR
 70
     0
  9
$PDMODE
 70
     0
  9
$PDSIZE
 40
-1.0
  9
$PLINEWID
 40
0.0
  9
$SPLFRAME
 70
     0
  9
$SPLINETYPE
 70
     6
  9
$SPLINESEGS
 70
     8
  9
$HANDSEED
  5
1BC
  9
$SURFTAB1
 70
     6
  9
$SURFTAB2
 70
     6
  9
$SURFTYPE
 70
     6
  9
$SURFU
 70
     6
  9
$SURFV
 70
     6
  9
$UCSBASE
  2

  9
$UCSNAME
  2

  9
$UCSORG
 10
0.0
 20
0.0
 30
0.0
  9
$UCSXDIR
 10
1.0
 20
0.0
 30
0.0
  9
$UCSYDIR
 10
0.0
 20
1.0
 30
0.0
  9
$UCSORTHOREF
  2

  9
$UCSORTHOVIEW
 70
     0
  9
$UCSORGTOP
 10
0.0
 20
0.0
 30
0.0
  9
$UCSORGBOTTOM
 10
0.0
 20
0.0
 30
0.0
  9
$UCSORGLEFT
 10
0.0
 20
0.0
 30
0.0
  9
$UCSORGRIGHT
 10
0.0
 20
0.0
 30
0.0
  9
$UCSORGFRONT
 10
0.0
 20
0.0
 30
0.0
  9
$UCSORGBACK
 10
0.0
 20
0.0
 30
0.0
  9
$PUCSBASE
  2

  9
$PUCSNAME
  2

  9
$PUCSORG
 10
0.0
 20
0.0
 30
0.0
  9
$PUCSXDIR
 10
1.0
 20
0.0
 30
0.0
  9
$PUCSYDIR
 10
0.0
 20
1.0
 30
0.0
  9
$PUCSORTHOREF
  2

  9
$PUCSORTHOVIEW
 70
     0
  9
$PUCSORGTOP
 10
0.0
 20
0.0
 30
0.0
  9
$PUCSORGBOTTOM
 10
0.0
 20
0.0
 30
0.0
  9
$PUCSORGLEFT
 10
0.0
 20
0.0
 30
0.0
  9
$PUCSORGRIGHT
 10
0.0
 20
0.0
 30
0.0
  9
$PUCSORGFRONT
 10
0.0
 20
0.0
 30
0.0
  9
$PUCSORGBACK
 10
0.0
 20
0.0
 30
0.0
  9
$USERI1
 70
     0
  9
$USERI2
 70
     0
  9
$USERI3
 70
     0
  9
$USERI4
 70
     0
  9
$USERI5
 70
     0
  9
$USERR1
 40
0.0
  9
$USERR2
 40
0.0
  9
$USERR3
 40
0.0
  9
$USERR4
 40
0.0
  9
$USERR5
 40
0.0
  9
$WORLDVIEW
 70
     1
  9
$SHADEDGE
 70
     3
  9
$SHADEDIF
 70
    70
  9
$TILEMODE
 70
     1
  9
$MAXACTVP
 70
    64
  9
$PINSBASE
 10
0.0
 20
0.0
 30
0.0
  9
$PLIMCHECK
 70
     0
  9
$PEXTMIN
 10
1.0000000000E+20
 20
1.0000000000E+20
 30
1.0000000000E+20
  9
$PEXTMAX
 10
-1.0000000000E+20
 20
-1.0000000000E+20
 30
-1.0000000000E+20
  9
$PLIMMIN
 10
0.0
 20
0.0
  9
$PLIMMAX
 10
420.0
 20
297.0
  9
$UNITMODE
 70
     0
  9
$VISRETAIN
 70
     1
  9
$PLINEGEN
 70
     0
  9
$PSLTSCALE
 70
     1
  9
$TREEDEPTH
 70
  3020
  9
$CMLSTYLE
  2
Standard
  9
$CMLJUST
 70
     0
  9
$CMLSCALE
 40
20.0
  9
$PROXYGRAPHICS
 70
     1
  9
$MEASUREMENT
 70
     1
  9
$CELWEIGHT
370
    -1
  9
$ENDCAPS
280
     0
  9
$JOINSTYLE
280
     0
  9
$LWDISPLAY
290
     1
  9
$INSUNITS
 70
     4
  9
$HYPERLINKBASE
  1

  9
$STYLESHEET
  1

  9
$XEDIT
290
     1
  9
$CEPSNTYPE
380
     0
  9
$PSTYLEMODE
290
     1
  9
$FINGERPRINTGUID
  2
{43a0b74a-3054-4e67-bfe6-502162d79d04}
  9
$VERSIONGUID
  2
{FAEB1C32-E019-11D5-929B-00C0DF256EC4}
  9
$EXTNAMES
290
     1
  9
$PSVPSCALE
 40
0.0
  9
$OLESTARTUP
290
     0
  0
ENDSEC
  0
SECTION
  2
CLASSES
  0
CLASS
  1
ACDBDICTIONARYWDFLT
  2
AcDbDictionaryWithDefault
  3
ObjectDBX Classes
 90
        0
280
     0
281
     0
  0
CLASS
  1
VISUALSTYLE
  2
AcDbVisualStyle
  3
ObjectDBX Classes
 90
     4095
280
     0
281
     0
  0
CLASS
  1
MATERIAL
  2
AcDbMaterial
  3
ObjectDBX Classes
 90
     1153
280
     0
281
     0
  0
CLASS
  1
SCALE
  2
AcDbScale
  3
ObjectDBX Classes
 90
     1153
280
     0
281
     0
  0
CLASS
  1
TABLESTYLE
  2
AcDbTableStyle
  3
ObjectDBX Classes
 90
     4095
280
     0
281
     0
  0
CLASS
  1
MLEADERSTYLE
  2
AcDbMLeaderStyle
  3
ACDB_MLEADERSTYLE_CLASS
 90
     4095
280
     0
281
     0
  0
CLASS
  1
SUN
  2
AcDbSun
  3
SCENEOE
 90
     1153
280
     0
281
     0
  0
CLASS
  1
ACDBPLACEHOLDER
  2
AcDbPlaceHolder
  3
ObjectDBX Classes
 90
        0
280
     0
281
     0
  0
CLASS
  1
LAYOUT
  2
AcDbLayout
  3
ObjectDBX Classes
 90
        0
280
     0
281
     0
  0
ENDSEC
  0
SECTION
  2
TABLES
  0
TABLE
  2
VPORT
  5
8
330
0
100
AcDbSymbolTable
 70
     1
  0
VPORT
  5
29
330
8
100
AcDbSymbolTableRecord
100
AcDbViewportTableRecord
  2
*Active
 70
     0
 10
0.0
 20
0.0
 11
1.0
 21
1.0
 12
139.7
 22
107.95
 13
0.0
 23
0.0
 14
10.0
 24
10.0
 15
10.0
 25
10.0
 16
0.0
 26
0.0
 36
1.0
 17
0.0
 27
0.0
 37
0.0
 40
215.9
 41
1.2941176471
 42
50.0
 43
0.0
 44
0.0
 50
0.0
 51
0.0
 71
     0
 72
  2000
 73
     1
 74
     3
 75
     0
 76
     0
 77
     0
 78
     0
281
     0
 65
     1
110
0.0
120
0.0
130
0.0
111
1.0
121
0.0
131
0.0
112
0.0
122
1.0
132
0.0
 79
     0
146
0.0
  0
ENDTAB
  0
TABLE
  2
LTYPE
  5
5
330
0
100
AcDbSymbolTable
 70
     6
  0
LTYPE
  5
14
330
5
100
AcDbSymbolTableRecord
100
AcDbLinetypeTableRecord
  2
ByBlock
 70
     0
  3

 72
    65
 73
     0
 40
0.0
  0
LTYPE
  5
15
330
5
100
AcDbSymbolTableRecord
100
AcDbLinetypeTableRecord
  2
ByLayer
 70
     0
  3

 72
    65
 73
     0
 40
0.0
  0
LTYPE
  5
16
330
5
100
AcDbSymbolTableRecord
100
AcDbLinetypeTableRecord
  2
Continuous
 70
     0
  3
Solid line
 72
    65
 73
     0
 40
0.0
  0
LTYPE
  5
6E
330
5
100
AcDbSymbolTableRecord
100
AcDbLinetypeTableRecord
  2
HIDDEN
 70
     0
  3
Hidden __ __ __ __ __ __ __ __ __ __ __ __ __ __
 72
    65
 73
     2
 40
1.905
 49
1.27
 74
     0
 49
-0.635
 74
     0
  0
LTYPE
  5
6F
330
5
100
AcDbSymbolTableRecord
100
AcDbLinetypeTableRecord
  2
PHANTOM
 70
     0
  3
Phantom ______  __  __  ______  __  __  ______
 72
    65
 73
     6
 40
12.7
 49
6.35
 74
     0
 49
-1.27
 74
     0
 49
1.27
 74
     0
 49
-1.27
 74
     0
 49
1.27
 74
     0
 49
-1.27
 74
     0
  0
LTYPE
  5
70
330
5
100
AcDbSymbolTableRecord
100
AcDbLinetypeTableRecord
  2
CENTER
 70
     0
  3
Center ____ _ ____ _ ____ _ ____ _ ____ _ ____
 72
    65
 73
     4
 40
10.16
 49
6.35
 74
     0
 49
-1.27
 74
     0
 49
1.27
 74
     0
 49
-1.27
 74
     0
  0
LTYPE
  5
71
330
5
100
AcDbSymbolTableRecord
100
AcDbLinetypeTableRecord
  2
CENTERX2
 70
     0
  3
Center (2x) ________  __  ________  __  _____
 72
    65
 73
     4
 40
20.32
 49
12.7
 74
     0
 49
-2.54
 74
     0
 49
2.54
 74
     0
 49
-2.54
 74
     0
  0
LTYPE
  5
72
330
5
100
AcDbSymbolTableRecord
100
AcDbLinetypeTableRecord
  2
DOT2
 70
     0
  3
Dot (.5x) ........................................
 72
    65
 73
     2
 40
0.635
 49
0.0
 74
     0
 49
-0.635
 74
     0
  0
ENDTAB
  0
TABLE
  2
LAYER
  5
2
330
0
100
AcDbSymbolTable
 70
    17
  0
LAYER
  5
10
330
2
100
AcDbSymbolTableRecord
100
AcDbLayerTableRecord
  2
0
 70
     0
 62
     7
  6
Continuous
370
    -3
390
F
  0
LAYER
  5
73
330
2
100
AcDbSymbolTableRecord
100
AcDbLayerTableRecord
  2
FORMAT
 70
     0
 62
     7
  6
Continuous
370
    -3
390
F
  0
LAYER
  5
74
330
2
100
AcDbSymbolTableRecord
100
AcDbLayerTableRecord
  2
YARDIMCI_GEOMETRI
 70
     0
 62
    -6
  6
Continuous
290
     0
370
    -3
390
F
  0
LAYER
  5
75
330
2
100
AcDbSymbolTableRecord
100
AcDbLayerTableRecord
  2
SAYFA_CERCEVESI
 70
     0
 62
     7
  6
Continuous
370
    25
390
F
  0
LAYER
  5
76
330
2
100
AcDbSymbolTableRecord
100
AcDbLayerTableRecord
  2
ANTET
 70
     0
 62
     7
  6
Continuous
370
    -3
390
F
  0
LAYER
  5
77
330
2
100
AcDbSymbolTableRecord
100
AcDbLayerTableRecord
  2
OLCU
 70
     0
 62
   150
  6
Continuous
370
    -3
390
F
  0
LAYER
  5
78
330
2
100
AcDbSymbolTableRecord
100
AcDbLayerTableRecord
  2
METIN
 70
     0
 62
    96
  6
Continuous
370
    -3
390
F
  0
LAYER
  5
79
330
2
100
AcDbSymbolTableRecord
100
AcDbLayerTableRecord
  2
BALON
 70
     0
 62
     5
  6
Continuous
370
    -3
390
F
  0
LAYER
  5
7A
330
2
100
AcDbSymbolTableRecord
100
AcDbLayerTableRecord
  2
VURGU
 70
     0
 62
     7
  6
Continuous
370
    -3
390
F
  0
LAYER
  5
7B
330
2
100
AcDbSymbolTableRecord
100
AcDbLayerTableRecord
  2
SILIK
 70
     0
 62
     7
  6
Continuous
370
    -3
390
F
  0
LAYER
  5
7C
330
2
100
AcDbSymbolTableRecord
100
AcDbLayerTableRecord
  2
MODEL
 70
     0
 62
     7
  6
Continuous
370
    -3
390
F
  0
LAYER
  5
7D
330
2
100
AcDbSymbolTableRecord
100
AcDbLayerTableRecord
  2
DETAYLANDıRMA
 70
     0
 62
   190
  6
Continuous
370
    -3
390
F
  0
LAYER
  5
7E
330
2
100
AcDbSymbolTableRecord
100
AcDbLayerTableRecord
  2
TOLERANS
 70
     0
 62
   230
  6
Continuous
370
    -3
390
F
  0
LAYER
  5
7F
330
2
100
AcDbSymbolTableRecord
100
AcDbLayerTableRecord
  2
MERKEZ_CIZGILERI
 70
     0
 62
    30
  6
Continuous
370
    -3
390
F
  0
LAYER
  5
80
330
2
100
AcDbSymbolTableRecord
100
AcDbLayerTableRecord
  2
KESIT-DETAY_CIZGILERI
 70
     0
 62
     7
  6
Continuous
370
    -3
390
F
  0
LAYER
  5
81
330
2
100
AcDbSymbolTableRecord
100
AcDbLayerTableRecord
  2
\U+041E\U+0421\U+0415\U+0412\U+042B\U+0415
 70
     0
 62
     7
  6
Continuous
370
    -3
390
F
  0
LAYER
  5
82
330
2
100
AcDbSymbolTableRecord
100
AcDbLayerTableRecord
  2
\U+0412\U+041E\U+0414\U+042F\U+041D\U+042B\U+0415_\U+0417\U+041D\U+0410\U+041A\U+0418
 70
     0
 62
    11
  6
Continuous
370
    -3
390
F
  0
ENDTAB
  0
TABLE
  2
STYLE
  5
3
330
0
100
AcDbSymbolTable
 70
     1
  0
STYLE
  5
11
330
3
100
AcDbSymbolTableRecord
100
AcDbTextStyleTableRecord
  2
Standard
 70
     0
 40
0.0
 41
1.0
 50
0.0
 71
     0
 42
3.5
  3
txt
  4

  0
ENDTAB
  0
TABLE
  2
VIEW
  5
6
330
0
100
AcDbSymbolTable
 70
     0
  0
ENDTAB
  0
TABLE
  2
UCS
  5
7
330
0
100
AcDbSymbolTable
 70
     0
  0
ENDTAB
  0
TABLE
  2
APPID
  5
9
330
0
100
AcDbSymbolTable
 70
     1
  0
APPID
  5
12
330
9
100
AcDbSymbolTableRecord
100
AcDbRegAppTableRecord
  2
ACAD
 70
     0
  0
ENDTAB
  0
TABLE
  2
DIMSTYLE
  5
A
330
0
100
AcDbSymbolTable
 70
     1
100
AcDbDimStyleTable
  0
DIMSTYLE
105
27
330
A
100
AcDbSymbolTableRecord
100
AcDbDimStyleTableRecord
  2
ISO-25
 70
     0
 41
2.5
 42
0.625
 43
3.75
 44
1.25
 73
     0
 74
     0
 77
     1
 78
     8
140
2.5
141
2.5
143
0.0393700787
147
0.625
171
     3
172
     1
178
     0
271
     2
272
     2
274
     3
278
    44
283
     0
284
     8
340
11
  0
ENDTAB
  0
TABLE
  2
BLOCK_RECORD
  5
1
330
0
100
AcDbSymbolTable
 70
    14
  0
BLOCK_RECORD
  5
1F
330
1
100
AcDbSymbolTableRecord
100
AcDbBlockTableRecord
  2
*Model_Space
340
22
  0
BLOCK_RECORD
  5
1B
330
1
100
AcDbSymbolTableRecord
100
AcDbBlockTableRecord
  2
*Paper_Space
340
1E
  0
BLOCK_RECORD
  5
23
330
1
100
AcDbSymbolTableRecord
100
AcDbBlockTableRecord
  2
*Paper_Space0
340
26
  0
BLOCK_RECORD
  5
9F
330
1
100
AcDbSymbolTableRecord
100
AcDbBlockTableRecord
  2
SW_CENTERMARKSYMBOL_0
340
0
102
{BLKREFS
331
AA
102
}
  0
BLOCK_RECORD
  5
AB
330
1
100
AcDbSymbolTableRecord
100
AcDbBlockTableRecord
  2
SW_CENTERMARKSYMBOL_1
340
0
102
{BLKREFS
331
B6
102
}
  0
BLOCK_RECORD
  5
B7
330
1
100
AcDbSymbolTableRecord
100
AcDbBlockTableRecord
  2
SW_CENTERMARKSYMBOL_2
340
0
102
{BLKREFS
331
C2
102
}
  0
BLOCK_RECORD
  5
C3
330
1
100
AcDbSymbolTableRecord
100
AcDbBlockTableRecord
  2
SW_CENTERMARKSYMBOL_3
340
0
102
{BLKREFS
331
CE
102
}
  0
BLOCK_RECORD
  5
CF
330
1
100
AcDbSymbolTableRecord
100
AcDbBlockTableRecord
  2
SW_CENTERMARKSYMBOL_4
340
0
102
{BLKREFS
331
DA
102
}
  0
BLOCK_RECORD
  5
DB
330
1
100
AcDbSymbolTableRecord
100
AcDbBlockTableRecord
  2
SW_CENTERMARKSYMBOL_5
340
0
102
{BLKREFS
331
E6
102
}
  0
BLOCK_RECORD
  5
E7
330
1
100
AcDbSymbolTableRecord
100
AcDbBlockTableRecord
  2
SW_CENTERMARKSYMBOL_6
340
0
102
{BLKREFS
331
F2
102
}
  0
BLOCK_RECORD
  5
F3
330
1
100
AcDbSymbolTableRecord
100
AcDbBlockTableRecord
  2
SW_CENTERMARKSYMBOL_7
340
0
102
{BLKREFS
331
FE
102
}
  0
BLOCK_RECORD
  5
FF
330
1
100
AcDbSymbolTableRecord
100
AcDbBlockTableRecord
  2
SW_CENTERMARKSYMBOL_8
340
0
102
{BLKREFS
331
10A
102
}
  0
BLOCK_RECORD
  5
10B
330
1
100
AcDbSymbolTableRecord
100
AcDbBlockTableRecord
  2
SW_CENTERMARKSYMBOL_9
340
0
102
{BLKREFS
331
116
102
}
  0
BLOCK_RECORD
  5
117
330
1
100
AcDbSymbolTableRecord
100
AcDbBlockTableRecord
  2
SW_CENTERMARKSYMBOL_10
340
0
102
{BLKREFS
331
122
102
}
  0
BLOCK_RECORD
  5
123
330
1
100
AcDbSymbolTableRecord
100
AcDbBlockTableRecord
  2
SW_CENTERMARKSYMBOL_11
340
0
102
{BLKREFS
331
12E
102
}
  0
BLOCK_RECORD
  5
12F
330
1
100
AcDbSymbolTableRecord
100
AcDbBlockTableRecord
  2
SW_CENTERMARKSYMBOL_12
340
0
102
{BLKREFS
331
13A
102
}
  0
ENDTAB
  0
ENDSEC
  0
SECTION
  2
BLOCKS
  0
BLOCK
  5
20
330
1F
100
AcDbEntity
  8
0
100
AcDbBlockBegin
  2
*Model_Space
 70
     0
 10
0.0
 20
0.0
 30
0.0
  3
*Model_Space
  1

  0
ENDBLK
  5
21
330
1F
100
AcDbEntity
  8
0
100
AcDbBlockEnd
  0
BLOCK
  5
1C
330
1B
100
AcDbEntity
 67
     1
  8
0
100
AcDbBlockBegin
  2
*Paper_Space
 70
     0
 10
0.0
 20
0.0
 30
0.0
  3
*Paper_Space
  1

  0
ENDBLK
  5
1D
330
1B
100
AcDbEntity
 67
     1
  8
0
100
AcDbBlockEnd
  0
BLOCK
  5
24
330
23
100
AcDbEntity
  8
0
100
AcDbBlockBegin
  2
*Paper_Space0
 70
     0
 10
0.0
 20
0.0
 30
0.0
  3
*Paper_Space0
  1

  0
ENDBLK
  5
25
330
23
100
AcDbEntity
  8
0
100
AcDbBlockEnd
  0
BLOCK
  5
A0
330
9F
100
AcDbEntity
  8
0
100
AcDbBlockBegin
  2
SW_CENTERMARKSYMBOL_0
 70
     0
 10
0.0
 20
0.0
 30
0.0
  3
SW_CENTERMARKSYMBOL_0
  1

  0
LINE
  5
A2
330
9F
100
AcDbEntity
  8
FORMAT
 62
     0
100
AcDbLine
 10
0.0
 20
0.0
 30
0.0
 11
0.0
 21
2.5
 31
0.0
  0
LINE
  5
A3
330
9F
100
AcDbEntity
  8
FORMAT
 62
     0
100
AcDbLine
 10
0.0
 20
0.0
 30
0.0
 11
-2.5
 21
0.0
 31
0.0
  0
LINE
  5
A4
330
9F
100
AcDbEntity
  8
FORMAT
 62
     0
100
AcDbLine
 10
0.0
 20
0.0
 30
0.0
 11
0.0
 21
-2.5
 31
0.0
  0
LINE
  5
A5
330
9F
100
AcDbEntity
  8
FORMAT
 62
     0
100
AcDbLine
 10
0.0
 20
0.0
 30
0.0
 11
2.5
 21
0.0
 31
0.0
  0
LINE
  5
A6
330
9F
100
AcDbEntity
  8
FORMAT
 62
     0
100
AcDbLine
 10
0.0
 20
5.0
 30
0.0
 11
0.0
 21
208.5
 31
0.0
  0
LINE
  5
A7
330
9F
100
AcDbEntity
  8
FORMAT
 62
     0
100
AcDbLine
 10
-5.0
 20
0.0
 30
0.0
 11
-208.5
 21
0.0
 31
0.0
  0
LINE
  5
A8
330
9F
100
AcDbEntity
  8
FORMAT
 62
     0
100
AcDbLine
 10
0.0
 20
-5.0
 30
0.0
 11
0.0
 21
-208.5
 31
0.0
  0
LINE
  5
A9
330
9F
100
AcDbEntity
  8
FORMAT
 62
     0
100
AcDbLine
 10
5.0
 20
0.0
 30
0.0
 11
208.5
 21
0.0
 31
0.0
  0
ENDBLK
  5
A1
330
9F
100
AcDbEntity
  8
0
100
AcDbBlockEnd
  0
BLOCK
  5
AC
330
AB
100
AcDbEntity
  8
0
100
AcDbBlockBegin
  2
SW_CENTERMARKSYMBOL_1
 70
     0
 10
0.0
 20
0.0
 30
0.0
  3
SW_CENTERMARKSYMBOL_1
  1

  0
LINE
  5
AE
330
AB
100
AcDbEntity
  8
FORMAT
 62
     0
100
AcDbLine
 10
0.0
 20
0.0
 30
0.0
 11
0.0
 21
2.5
 31
0.0
  0
LINE
  5
AF
330
AB
100
AcDbEntity
  8
FORMAT
 62
     0
100
AcDbLine
 10
0.0
 20
0.0
 30
0.0
 11
-2.5
 21
0.0
 31
0.0
  0
LINE
  5
B0
330
AB
100
AcDbEntity
  8
FORMAT
 62
     0
100
AcDbLine
 10
0.0
 20
0.0
 30
0.0
 11
0.0
 21
-2.5
 31
0.0
  0
LINE
  5
B1
330
AB
100
AcDbEntity
  8
FORMAT
 62
     0
100
AcDbLine
 10
0.0
 20
0.0
 30
0.0
 11
2.5
 21
0.0
 31
0.0
  0
LINE
  5
B2
330
AB
100
AcDbEntity
  8
FORMAT
 62
     0
100
AcDbLine
 10
0.0
 20
5.0
 30
0.0
 11
0.0
 21
18.5
 31
0.0
  0
LINE
  5
B3
330
AB
100
AcDbEntity
  8
FORMAT
 62
     0
100
AcDbLine
 10
-5.0
 20
0.0
 30
0.0
 11
-18.5
 21
0.0
 31
0.0
  0
LINE
  5
B4
330
AB
100
AcDbEntity
  8
FORMAT
 62
     0
100
AcDbLine
 10
0.0
 20
-5.0
 30
0.0
 11
0.0
 21
-18.5
 31
0.0
  0
LINE
  5
B5
330
AB
100
AcDbEntity
  8
FORMAT
 62
     0
100
AcDbLine
 10
5.0
 20
0.0
 30
0.0
 11
18.5
 21
0.0
 31
0.0
  0
ENDBLK
  5
AD
330
AB
100
AcDbEntity
  8
0
100
AcDbBlockEnd
  0
BLOCK
  5
B8
330
B7
100
AcDbEntity
  8
0
100
AcDbBlockBegin
  2
SW_CENTERMARKSYMBOL_2
 70
     0
 10
0.0
 20
0.0
 30
0.0
  3
SW_CENTERMARKSYMBOL_2
  1

  0
LINE
  5
BA
330
B7
100
AcDbEntity
  8
FORMAT
 62
     0
100
AcDbLine
 10
0.0
 20
0.0
 30
0.0
 11
0.0
 21
2.5
 31
0.0
  0
LINE
  5
BB
330
B7
100
AcDbEntity
  8
FORMAT
 62
     0
100
AcDbLine
 10
0.0
 20
0.0
 30
0.0
 11
-2.5
 21
0.0
 31
0.0
  0
LINE
  5
BC
330
B7
100
AcDbEntity
  8
FORMAT
 62
     0
100
AcDbLine
 10
0.0
 20
0.0
 30
0.0
 11
0.0
 21
-2.5
 31
0.0
  0
LINE
  5
BD
330
B7
100
AcDbEntity
  8
FORMAT
 62
     0
100
AcDbLine
 10
0.0
 20
0.0
 30
0.0
 11
2.5
 21
0.0
 31
0.0
  0
LINE
  5
BE
330
B7
100
AcDbEntity
  8
FORMAT
 62
     0
100
AcDbLine
 10
0.0
 20
5.0
 30
0.0
 11
0.0
 21
18.5
 31
0.0
  0
LINE
  5
BF
330
B7
100
AcDbEntity
  8
FORMAT
 62
     0
100
AcDbLine
 10
-5.0
 20
0.0
 30
0.0
 11
-18.5
 21
0.0
 31
0.0
  0
LINE
  5
C0
330
B7
100
AcDbEntity
  8
FORMAT
 62
     0
100
AcDbLine
 10
0.0
 20
-5.0
 30
0.0
 11
0.0
 21
-18.5
 31
0.0
  0
LINE
  5
C1
330
B7
100
AcDbEntity
  8
FORMAT
 62
     0
100
AcDbLine
 10
5.0
 20
0.0
 30
0.0
 11
18.5
 21
0.0
 31
0.0
  0
ENDBLK
  5
B9
330
B7
100
AcDbEntity
  8
0
100
AcDbBlockEnd
  0
BLOCK
  5
C4
330
C3
100
AcDbEntity
  8
0
100
AcDbBlockBegin
  2
SW_CENTERMARKSYMBOL_3
 70
     0
 10
0.0
 20
0.0
 30
0.0
  3
SW_CENTERMARKSYMBOL_3
  1

  0
LINE
  5
C6
330
C3
100
AcDbEntity
  8
FORMAT
 62
     0
100
AcDbLine
 10
0.0
 20
0.0
 30
0.0
 11
0.0
 21
2.5
 31
0.0
  0
LINE
  5
C7
330
C3
100
AcDbEntity
  8
FORMAT
 62
     0
100
AcDbLine
 10
0.0
 20
0.0
 30
0.0
 11
-2.5
 21
0.0
 31
0.0
  0
LINE
  5
C8
330
C3
100
AcDbEntity
  8
FORMAT
 62
     0
100
AcDbLine
 10
0.0
 20
0.0
 30
0.0
 11
0.0
 21
-2.5
 31
0.0
  0
LINE
  5
C9
330
C3
100
AcDbEntity
  8
FORMAT
 62
     0
100
AcDbLine
 10
0.0
 20
0.0
 30
0.0
 11
2.5
 21
0.0
 31
0.0
  0
LINE
  5
CA
330
C3
100
AcDbEntity
  8
FORMAT
 62
     0
100
AcDbLine
 10
0.0
 20
5.0
 30
0.0
 11
0.0
 21
18.5
 31
0.0
  0
LINE
  5
CB
330
C3
100
AcDbEntity
  8
FORMAT
 62
     0
100
AcDbLine
 10
-5.0
 20
0.0
 30
0.0
 11
-18.5
 21
0.0
 31
0.0
  0
LINE
  5
CC
330
C3
100
AcDbEntity
  8
FORMAT
 62
     0
100
AcDbLine
 10
0.0
 20
-5.0
 30
0.0
 11
0.0
 21
-18.5
 31
0.0
  0
LINE
  5
CD
330
C3
100
AcDbEntity
  8
FORMAT
 62
     0
100
AcDbLine
 10
5.0
 20
0.0
 30
0.0
 11
18.5
 21
0.0
 31
0.0
  0
ENDBLK
  5
C5
330
C3
100
AcDbEntity
  8
0
100
AcDbBlockEnd
  0
BLOCK
  5
D0
330
CF
100
AcDbEntity
  8
0
100
AcDbBlockBegin
  2
SW_CENTERMARKSYMBOL_4
 70
     0
 10
0.0
 20
0.0
 30
0.0
  3
SW_CENTERMARKSYMBOL_4
  1

  0
LINE
  5
D2
330
CF
100
AcDbEntity
  8
FORMAT
 62
     0
100
AcDbLine
 10
0.0
 20
0.0
 30
0.0
 11
0.0
 21
2.5
 31
0.0
  0
LINE
  5
D3
330
CF
100
AcDbEntity
  8
FORMAT
 62
     0
100
AcDbLine
 10
0.0
 20
0.0
 30
0.0
 11
-2.5
 21
0.0
 31
0.0
  0
LINE
  5
D4
330
CF
100
AcDbEntity
  8
FORMAT
 62
     0
100
AcDbLine
 10
0.0
 20
0.0
 30
0.0
 11
0.0
 21
-2.5
 31
0.0
  0
LINE
  5
D5
330
CF
100
AcDbEntity
  8
FORMAT
 62
     0
100
AcDbLine
 10
0.0
 20
0.0
 30
0.0
 11
2.5
 21
0.0
 31
0.0
  0
LINE
  5
D6
330
CF
100
AcDbEntity
  8
FORMAT
 62
     0
100
AcDbLine
 10
0.0
 20
5.0
 30
0.0
 11
0.0
 21
18.5
 31
0.0
  0
LINE
  5
D7
330
CF
100
AcDbEntity
  8
FORMAT
 62
     0
100
AcDbLine
 10
-5.0
 20
0.0
 30
0.0
 11
-18.5
 21
0.0
 31
0.0
  0
LINE
  5
D8
330
CF
100
AcDbEntity
  8
FORMAT
 62
     0
100
AcDbLine
 10
0.0
 20
-5.0
 30
0.0
 11
0.0
 21
-18.5
 31
0.0
  0
LINE
  5
D9
330
CF
100
AcDbEntity
  8
FORMAT
 62
     0
100
AcDbLine
 10
5.0
 20
0.0
 30
0.0
 11
18.5
 21
0.0
 31
0.0
  0
ENDBLK
  5
D1
330
CF
100
AcDbEntity
  8
0
100
AcDbBlockEnd
  0
BLOCK
  5
DC
330
DB
100
AcDbEntity
  8
0
100
AcDbBlockBegin
  2
SW_CENTERMARKSYMBOL_5
 70
     0
 10
0.0
 20
0.0
 30
0.0
  3
SW_CENTERMARKSYMBOL_5
  1

  0
LINE
  5
DE
330
DB
100
AcDbEntity
  8
FORMAT
 62
     0
100
AcDbLine
 10
0.0
 20
0.0
 30
0.0
 11
0.0
 21
2.5
 31
0.0
  0
LINE
  5
DF
330
DB
100
AcDbEntity
  8
FORMAT
 62
     0
100
AcDbLine
 10
0.0
 20
0.0
 30
0.0
 11
-2.5
 21
0.0
 31
0.0
  0
LINE
  5
E0
330
DB
100
AcDbEntity
  8
FORMAT
 62
     0
100
AcDbLine
 10
0.0
 20
0.0
 30
0.0
 11
0.0
 21
-2.5
 31
0.0
  0
LINE
  5
E1
330
DB
100
AcDbEntity
  8
FORMAT
 62
     0
100
AcDbLine
 10
0.0
 20
0.0
 30
0.0
 11
2.5
 21
0.0
 31
0.0
  0
LINE
  5
E2
330
DB
100
AcDbEntity
  8
FORMAT
 62
     0
100
AcDbLine
 10
0.0
 20
5.0
 30
0.0
 11
0.0
 21
19.5
 31
0.0
  0
LINE
  5
E3
330
DB
100
AcDbEntity
  8
FORMAT
 62
     0
100
AcDbLine
 10
-5.0
 20
0.0
 30
0.0
 11
-19.5
 21
0.0
 31
0.0
  0
LINE
  5
E4
330
DB
100
AcDbEntity
  8
FORMAT
 62
     0
100
AcDbLine
 10
0.0
 20
-5.0
 30
0.0
 11
0.0
 21
-19.5
 31
0.0
  0
LINE
  5
E5
330
DB
100
AcDbEntity
  8
FORMAT
 62
     0
100
AcDbLine
 10
5.0
 20
0.0
 30
0.0
 11
19.5
 21
0.0
 31
0.0
  0
ENDBLK
  5
DD
330
DB
100
AcDbEntity
  8
0
100
AcDbBlockEnd
  0
BLOCK
  5
E8
330
E7
100
AcDbEntity
  8
0
100
AcDbBlockBegin
  2
SW_CENTERMARKSYMBOL_6
 70
     0
 10
0.0
 20
0.0
 30
0.0
  3
SW_CENTERMARKSYMBOL_6
  1

  0
LINE
  5
EA
330
E7
100
AcDbEntity
  8
FORMAT
 62
     0
100
AcDbLine
 10
0.0
 20
0.0
 30
0.0
 11
0.0
 21
2.5
 31
0.0
  0
LINE
  5
EB
330
E7
100
AcDbEntity
  8
FORMAT
 62
     0
100
AcDbLine
 10
0.0
 20
0.0
 30
0.0
 11
-2.5
 21
0.0
 31
0.0
  0
LINE
  5
EC
330
E7
100
AcDbEntity
  8
FORMAT
 62
     0
100
AcDbLine
 10
0.0
 20
0.0
 30
0.0
 11
0.0
 21
-2.5
 31
0.0
  0
LINE
  5
ED
330
E7
100
AcDbEntity
  8
FORMAT
 62
     0
100
AcDbLine
 10
0.0
 20
0.0
 30
0.0
 11
2.5
 21
0.0
 31
0.0
  0
LINE
  5
EE
330
E7
100
AcDbEntity
  8
FORMAT
 62
     0
100
AcDbLine
 10
0.0
 20
5.0
 30
0.0
 11
0.0
 21
19.5
 31
0.0
  0
LINE
  5
EF
330
E7
100
AcDbEntity
  8
FORMAT
 62
     0
100
AcDbLine
 10
-5.0
 20
0.0
 30
0.0
 11
-19.5
 21
0.0
 31
0.0
  0
LINE
  5
F0
330
E7
100
AcDbEntity
  8
FORMAT
 62
     0
100
AcDbLine
 10
0.0
 20
-5.0
 30
0.0
 11
0.0
 21
-19.5
 31
0.0
  0
LINE
  5
F1
330
E7
100
AcDbEntity
  8
FORMAT
 62
     0
100
AcDbLine
 10
5.0
 20
0.0
 30
0.0
 11
19.5
 21
0.0
 31
0.0
  0
ENDBLK
  5
E9
330
E7
100
AcDbEntity
  8
0
100
AcDbBlockEnd
  0
BLOCK
  5
F4
330
F3
100
AcDbEntity
  8
0
100
AcDbBlockBegin
  2
SW_CENTERMARKSYMBOL_7
 70
     0
 10
0.0
 20
0.0
 30
0.0
  3
SW_CENTERMARKSYMBOL_7
  1

  0
LINE
  5
F6
330
F3
100
AcDbEntity
  8
FORMAT
 62
     0
100
AcDbLine
 10
0.0
 20
0.0
 30
0.0
 11
0.0
 21
2.5
 31
0.0
  0
LINE
  5
F7
330
F3
100
AcDbEntity
  8
FORMAT
 62
     0
100
AcDbLine
 10
0.0
 20
0.0
 30
0.0
 11
-2.5
 21
0.0
 31
0.0
  0
LINE
  5
F8
330
F3
100
AcDbEntity
  8
FORMAT
 62
     0
100
AcDbLine
 10
0.0
 20
0.0
 30
0.0
 11
0.0
 21
-2.5
 31
0.0
  0
LINE
  5
F9
330
F3
100
AcDbEntity
  8
FORMAT
 62
     0
100
AcDbLine
 10
0.0
 20
0.0
 30
0.0
 11
2.5
 21
0.0
 31
0.0
  0
LINE
  5
FA
330
F3
100
AcDbEntity
  8
FORMAT
 62
     0
100
AcDbLine
 10
0.0
 20
5.0
 30
0.0
 11
0.0
 21
19.5
 31
0.0
  0
LINE
  5
FB
330
F3
100
AcDbEntity
  8
FORMAT
 62
     0
100
AcDbLine
 10
-5.0
 20
0.0
 30
0.0
 11
-19.5
 21
0.0
 31
0.0
  0
LINE
  5
FC
330
F3
100
AcDbEntity
  8
FORMAT
 62
     0
100
AcDbLine
 10
0.0
 20
-5.0
 30
0.0
 11
0.0
 21
-19.5
 31
0.0
  0
LINE
  5
FD
330
F3
100
AcDbEntity
  8
FORMAT
 62
     0
100
AcDbLine
 10
5.0
 20
0.0
 30
0.0
 11
19.5
 21
0.0
 31
0.0
  0
ENDBLK
  5
F5
330
F3
100
AcDbEntity
  8
0
100
AcDbBlockEnd
  0
BLOCK
  5
100
330
FF
100
AcDbEntity
  8
0
100
AcDbBlockBegin
  2
SW_CENTERMARKSYMBOL_8
 70
     0
 10
0.0
 20
0.0
 30
0.0
  3
SW_CENTERMARKSYMBOL_8
  1

  0
LINE
  5
102
330
FF
100
AcDbEntity
  8
FORMAT
 62
     0
100
AcDbLine
 10
0.0
 20
0.0
 30
0.0
 11
0.0
 21
2.5
 31
0.0
  0
LINE
  5
103
330
FF
100
AcDbEntity
  8
FORMAT
 62
     0
100
AcDbLine
 10
0.0
 20
0.0
 30
0.0
 11
-2.5
 21
0.0
 31
0.0
  0
LINE
  5
104
330
FF
100
AcDbEntity
  8
FORMAT
 62
     0
100
AcDbLine
 10
0.0
 20
0.0
 30
0.0
 11
0.0
 21
-2.5
 31
0.0
  0
LINE
  5
105
330
FF
100
AcDbEntity
  8
FORMAT
 62
     0
100
AcDbLine
 10
0.0
 20
0.0
 30
0.0
 11
2.5
 21
0.0
 31
0.0
  0
LINE
  5
106
330
FF
100
AcDbEntity
  8
FORMAT
 62
     0
100
AcDbLine
 10
0.0
 20
5.0
 30
0.0
 11
0.0
 21
19.5
 31
0.0
  0
LINE
  5
107
330
FF
100
AcDbEntity
  8
FORMAT
 62
     0
100
AcDbLine
 10
-5.0
 20
0.0
 30
0.0
 11
-19.5
 21
0.0
 31
0.0
  0
LINE
  5
108
330
FF
100
AcDbEntity
  8
FORMAT
 62
     0
100
AcDbLine
 10
0.0
 20
-5.0
 30
0.0
 11
0.0
 21
-19.5
 31
0.0
  0
LINE
  5
109
330
FF
100
AcDbEntity
  8
FORMAT
 62
     0
100
AcDbLine
 10
5.0
 20
0.0
 30
0.0
 11
19.5
 21
0.0
 31
0.0
  0
ENDBLK
  5
101
330
FF
100
AcDbEntity
  8
0
100
AcDbBlockEnd
  0
BLOCK
  5
10C
330
10B
100
AcDbEntity
  8
0
100
AcDbBlockBegin
  2
SW_CENTERMARKSYMBOL_9
 70
     0
 10
0.0
 20
0.0
 30
0.0
  3
SW_CENTERMARKSYMBOL_9
  1

  0
LINE
  5
10E
330
10B
100
AcDbEntity
  8
FORMAT
 62
     0
100
AcDbLine
 10
0.0
 20
0.0
 30
0.0
 11
0.0
 21
2.5
 31
0.0
  0
LINE
  5
10F
330
10B
100
AcDbEntity
  8
FORMAT
 62
     0
100
AcDbLine
 10
0.0
 20
0.0
 30
0.0
 11
-2.5
 21
0.0
 31
0.0
  0
LINE
  5
110
330
10B
100
AcDbEntity
  8
FORMAT
 62
     0
100
AcDbLine
 10
0.0
 20
0.0
 30
0.0
 11
0.0
 21
-2.5
 31
0.0
  0
LINE
  5
111
330
10B
100
AcDbEntity
  8
FORMAT
 62
     0
100
AcDbLine
 10
0.0
 20
0.0
 30
0.0
 11
2.5
 21
0.0
 31
0.0
  0
LINE
  5
112
330
10B
100
AcDbEntity
  8
FORMAT
 62
     0
100
AcDbLine
 10
0.0
 20
5.0
 30
0.0
 11
0.0
 21
19.5
 31
0.0
  0
LINE
  5
113
330
10B
100
AcDbEntity
  8
FORMAT
 62
     0
100
AcDbLine
 10
-5.0
 20
0.0
 30
0.0
 11
-19.5
 21
0.0
 31
0.0
  0
LINE
  5
114
330
10B
100
AcDbEntity
  8
FORMAT
 62
     0
100
AcDbLine
 10
0.0
 20
-5.0
 30
0.0
 11
0.0
 21
-19.5
 31
0.0
  0
LINE
  5
115
330
10B
100
AcDbEntity
  8
FORMAT
 62
     0
100
AcDbLine
 10
5.0
 20
0.0
 30
0.0
 11
19.5
 21
0.0
 31
0.0
  0
ENDBLK
  5
10D
330
10B
100
AcDbEntity
  8
0
100
AcDbBlockEnd
  0
BLOCK
  5
118
330
117
100
AcDbEntity
  8
0
100
AcDbBlockBegin
  2
SW_CENTERMARKSYMBOL_10
 70
     0
 10
0.0
 20
0.0
 30
0.0
  3
SW_CENTERMARKSYMBOL_10
  1

  0
LINE
  5
11A
330
117
100
AcDbEntity
  8
FORMAT
 62
     0
100
AcDbLine
 10
0.0
 20
0.0
 30
0.0
 11
0.0
 21
2.5
 31
0.0
  0
LINE
  5
11B
330
117
100
AcDbEntity
  8
FORMAT
 62
     0
100
AcDbLine
 10
0.0
 20
0.0
 30
0.0
 11
-2.5
 21
0.0
 31
0.0
  0
LINE
  5
11C
330
117
100
AcDbEntity
  8
FORMAT
 62
     0
100
AcDbLine
 10
0.0
 20
0.0
 30
0.0
 11
0.0
 21
-2.5
 31
0.0
  0
LINE
  5
11D
330
117
100
AcDbEntity
  8
FORMAT
 62
     0
100
AcDbLine
 10
0.0
 20
0.0
 30
0.0
 11
2.5
 21
0.0
 31
0.0
  0
LINE
  5
11E
330
117
100
AcDbEntity
  8
FORMAT
 62
     0
100
AcDbLine
 10
0.0
 20
5.0
 30
0.0
 11
0.0
 21
19.5
 31
0.0
  0
LINE
  5
11F
330
117
100
AcDbEntity
  8
FORMAT
 62
     0
100
AcDbLine
 10
-5.0
 20
0.0
 30
0.0
 11
-19.5
 21
0.0
 31
0.0
  0
LINE
  5
120
330
117
100
AcDbEntity
  8
FORMAT
 62
     0
100
AcDbLine
 10
0.0
 20
-5.0
 30
0.0
 11
0.0
 21
-19.5
 31
0.0
  0
LINE
  5
121
330
117
100
AcDbEntity
  8
FORMAT
 62
     0
100
AcDbLine
 10
5.0
 20
0.0
 30
0.0
 11
19.5
 21
0.0
 31
0.0
  0
ENDBLK
  5
119
330
117
100
AcDbEntity
  8
0
100
AcDbBlockEnd
  0
BLOCK
  5
124
330
123
100
AcDbEntity
  8
0
100
AcDbBlockBegin
  2
SW_CENTERMARKSYMBOL_11
 70
     0
 10
0.0
 20
0.0
 30
0.0
  3
SW_CENTERMARKSYMBOL_11
  1

  0
LINE
  5
126
330
123
100
AcDbEntity
  8
FORMAT
 62
     0
100
AcDbLine
 10
0.0
 20
0.0
 30
0.0
 11
0.0
 21
2.5
 31
0.0
  0
LINE
  5
127
330
123
100
AcDbEntity
  8
FORMAT
 62
     0
100
AcDbLine
 10
0.0
 20
0.0
 30
0.0
 11
-2.5
 21
0.0
 31
0.0
  0
LINE
  5
128
330
123
100
AcDbEntity
  8
FORMAT
 62
     0
100
AcDbLine
 10
0.0
 20
0.0
 30
0.0
 11
0.0
 21
-2.5
 31
0.0
  0
LINE
  5
129
330
123
100
AcDbEntity
  8
FORMAT
 62
     0
100
AcDbLine
 10
0.0
 20
0.0
 30
0.0
 11
2.5
 21
0.0
 31
0.0
  0
LINE
  5
12A
330
123
100
AcDbEntity
  8
FORMAT
 62
     0
100
AcDbLine
 10
0.0
 20
5.0
 30
0.0
 11
0.0
 21
19.5
 31
0.0
  0
LINE
  5
12B
330
123
100
AcDbEntity
  8
FORMAT
 62
     0
100
AcDbLine
 10
-5.0
 20
0.0
 30
0.0
 11
-19.5
 21
0.0
 31
0.0
  0
LINE
  5
12C
330
123
100
AcDbEntity
  8
FORMAT
 62
     0
100
AcDbLine
 10
0.0
 20
-5.0
 30
0.0
 11
0.0
 21
-19.5
 31
0.0
  0
LINE
  5
12D
330
123
100
AcDbEntity
  8
FORMAT
 62
     0
100
AcDbLine
 10
5.0
 20
0.0
 30
0.0
 11
19.5
 21
0.0
 31
0.0
  0
ENDBLK
  5
125
330
123
100
AcDbEntity
  8
0
100
AcDbBlockEnd
  0
BLOCK
  5
130
330
12F
100
AcDbEntity
  8
0
100
AcDbBlockBegin
  2
SW_CENTERMARKSYMBOL_12
 70
     0
 10
0.0
 20
0.0
 30
0.0
  3
SW_CENTERMARKSYMBOL_12
  1

  0
LINE
  5
132
330
12F
100
AcDbEntity
  8
FORMAT
 62
     0
100
AcDbLine
 10
0.0
 20
0.0
 30
0.0
 11
0.0
 21
2.5
 31
0.0
  0
LINE
  5
133
330
12F
100
AcDbEntity
  8
FORMAT
 62
     0
100
AcDbLine
 10
0.0
 20
0.0
 30
0.0
 11
-2.5
 21
0.0
 31
0.0
  0
LINE
  5
134
330
12F
100
AcDbEntity
  8
FORMAT
 62
     0
100
AcDbLine
 10
0.0
 20
0.0
 30
0.0
 11
0.0
 21
-2.5
 31
0.0
  0
LINE
  5
135
330
12F
100
AcDbEntity
  8
FORMAT
 62
     0
100
AcDbLine
 10
0.0
 20
0.0
 30
0.0
 11
2.5
 21
0.0
 31
0.0
  0
LINE
  5
136
330
12F
100
AcDbEntity
  8
FORMAT
 62
     0
100
AcDbLine
 10
0.0
 20
5.0
 30
0.0
 11
0.0
 21
19.5
 31
0.0
  0
LINE
  5
137
330
12F
100
AcDbEntity
  8
FORMAT
 62
     0
100
AcDbLine
 10
-5.0
 20
0.0
 30
0.0
 11
-19.5
 21
0.0
 31
0.0
  0
LINE
  5
138
330
12F
100
AcDbEntity
  8
FORMAT
 62
     0
100
AcDbLine
 10
0.0
 20
-5.0
 30
0.0
 11
0.0
 21
-19.5
 31
0.0
  0
LINE
  5
139
330
12F
100
AcDbEntity
  8
FORMAT
 62
     0
100
AcDbLine
 10
5.0
 20
0.0
 30
0.0
 11
19.5
 21
0.0
 31
0.0
  0
ENDBLK
  5
131
330
12F
100
AcDbEntity
  8
0
100
AcDbBlockEnd
  0
ENDSEC
  0
SECTION
  2
ENTITIES
  0
CIRCLE
  5
83
330
1F
100
AcDbEntity
  8
0
  6
Continuous
 62
     7
370
    25
100
AcDbCircle
 10
-21.5967029944
 20
206.1659958732
 30
0.0
 40
16.99999999999999
  0
CIRCLE
  5
84
330
1F
100
AcDbEntity
  8
0
  6
Continuous
 62
     7
370
    25
100
AcDbCircle
 10
-21.5967029944
 20
25.2159958732
 30
0.0
 40
17.00000000000001
  0
CIRCLE
  5
85
330
1F
100
AcDbEntity
  8
0
  6
Continuous
 62
     7
370
    25
100
AcDbCircle
 10
135.1105938204
 20
-65.2590041268
 30
0.0
 40
16.99999999999997
  0
CIRCLE
  5
86
330
1F
100
AcDbEntity
  8
0
  6
Continuous
 62
     7
370
    25
100
AcDbCircle
 10
316.0605938204
 20
115.6909958732
 30
0.0
 40
17.0
  0
CIRCLE
  5
87
330
1F
100
AcDbEntity
  8
0
  6
Continuous
 62
     7
370
    25
100
AcDbCircle
 10
225.5855938204
 20
272.398292688
 30
0.0
 40
17.0
  0
CIRCLE
  5
88
330
1F
100
AcDbEntity
  8
0
  6
Continuous
 62
     7
370
    25
100
AcDbCircle
 10
135.1105938204
 20
296.6409958732
 30
0.0
 40
17.0
  0
CIRCLE
  5
89
330
1F
100
AcDbEntity
  8
0
  6
Continuous
 62
     7
370
    25
100
AcDbCircle
 10
135.1105938204
 20
115.6909958732
 30
0.0
 40
205.0
  0
CIRCLE
  5
8A
330
1F
100
AcDbEntity
  8
0
  6
Continuous
 62
     7
370
    25
100
AcDbCircle
 10
135.1105938204
 20
115.6909958732
 30
0.0
 40
145.0
  0
CIRCLE
  5
8B
330
1F
100
AcDbEntity
  8
0
  6
Continuous
 62
     7
370
    25
100
AcDbCircle
 10
291.8178906352
 20
25.2159958732
 30
0.0
 40
17.00000000000006
  0
CIRCLE
  5
8C
330
1F
100
AcDbEntity
  8
0
  6
Continuous
 62
     7
370
    25
100
AcDbCircle
 10
291.8178906352
 20
206.1659958732
 30
0.0
 40
17.0
  0
CIRCLE
  5
8D
330
1F
100
AcDbEntity
  8
0
  6
Continuous
 62
     7
370
    25
100
AcDbCircle
 10
225.5855938204
 20
-41.0163009416
 30
0.0
 40
17.0
  0
CIRCLE
  5
8E
330
1F
100
AcDbEntity
  8
0
  6
Continuous
 62
     7
370
    25
100
AcDbCircle
 10
44.6355938204
 20
-41.0163009416
 30
0.0
 40
17.0
  0
CIRCLE
  5
8F
330
1F
100
AcDbEntity
  8
0
  6
Continuous
 62
     7
370
    25
100
AcDbCircle
 10
-45.8394061796
 20
115.6909958732
 30
0.0
 40
16.99999999999999
  0
CIRCLE
  5
90
330
1F
100
AcDbEntity
  8
0
  6
Continuous
 62
     7
370
    25
100
AcDbCircle
 10
44.6355938204
 20
272.398292688
 30
0.0
 40
17.00000000000001
  0
CIRCLE
  5
91
330
1F
100
AcDbEntity
  8
0
  6
Continuous
 62
     7
370
    25
100
AcDbCircle
 10
291.8178906352
 20
206.1659958732
 30
0.0
 40
16.0
  0
CIRCLE
  5
92
330
1F
100
AcDbEntity
  8
0
  6
Continuous
 62
     7
370
    25
100
AcDbCircle
 10
291.8178906352
 20
25.2159958732
 30
0.0
 40
16.00000000000006
  0
CIRCLE
  5
93
330
1F
100
AcDbEntity
  8
0
  6
Continuous
 62
     7
370
    25
100
AcDbCircle
 10
135.1105938204
 20
115.6909958732
 30
0.0
 40
144.0
  0
CIRCLE
  5
94
330
1F
100
AcDbEntity
  8
0
  6
Continuous
 62
     7
370
    25
100
AcDbCircle
 10
135.1105938204
 20
115.6909958732
 30
0.0
 40
206.0
  0
CIRCLE
  5
95
330
1F
100
AcDbEntity
  8
0
  6
Continuous
 62
     7
370
    25
100
AcDbCircle
 10
135.1105938204
 20
296.6409958732
 30
0.0
 40
16.0
  0
CIRCLE
  5
96
330
1F
100
AcDbEntity
  8
0
  6
Continuous
 62
     7
370
    25
100
AcDbCircle
 10
225.5855938204
 20
272.398292688
 30
0.0
 40
16.0
  0
CIRCLE
  5
97
330
1F
100
AcDbEntity
  8
0
  6
Continuous
 62
     7
370
    25
100
AcDbCircle
 10
316.0605938204
 20
115.6909958732
 30
0.0
 40
16.0
  0
CIRCLE
  5
98
330
1F
100
AcDbEntity
  8
0
  6
Continuous
 62
     7
370
    25
100
AcDbCircle
 10
44.6355938204
 20
272.398292688
 30
0.0
 40
16.0
  0
CIRCLE
  5
99
330
1F
100
AcDbEntity
  8
0
  6
Continuous
 62
     7
370
    25
100
AcDbCircle
 10
-45.8394061796
 20
115.6909958732
 30
0.0
 40
15.99999999999999
  0
CIRCLE
  5
9A
330
1F
100
AcDbEntity
  8
0
  6
Continuous
 62
     7
370
    25
100
AcDbCircle
 10
44.6355938204
 20
-41.0163009416
 30
0.0
 40
16.0
  0
CIRCLE
  5
9B
330
1F
100
AcDbEntity
  8
0
  6
Continuous
 62
     7
370
    25
100
AcDbCircle
 10
225.5855938204
 20
-41.0163009416
 30
0.0
 40
16.0
  0
CIRCLE
  5
9C
330
1F
100
AcDbEntity
  8
0
  6
Continuous
 62
     7
370
    25
100
AcDbCircle
 10
135.1105938204
 20
-65.2590041268
 30
0.0
 40
15.99999999999997
  0
CIRCLE
  5
9D
330
1F
100
AcDbEntity
  8
0
  6
Continuous
 62
     7
370
    25
100
AcDbCircle
 10
-21.5967029944
 20
25.2159958732
 30
0.0
 40
16.00000000000001
  0
CIRCLE
  5
9E
330
1F
100
AcDbEntity
  8
0
  6
Continuous
 62
     7
370
    25
100
AcDbCircle
 10
-21.5967029944
 20
206.1659958732
 30
0.0
 40
15.99999999999999
  0
INSERT
  5
AA
330
1F
100
AcDbEntity
  8
FORMAT
 62
     7
100
AcDbBlockReference
  2
SW_CENTERMARKSYMBOL_0
 10
135.1105938204
 20
115.6909958732
 30
0.0
  0
INSERT
  5
B6
330
1F
100
AcDbEntity
  8
FORMAT
 62
     7
100
AcDbBlockReference
  2
SW_CENTERMARKSYMBOL_1
 10
135.1105938204
 20
296.6409958732
 30
0.0
  0
INSERT
  5
C2
330
1F
100
AcDbEntity
  8
FORMAT
 62
     7
100
AcDbBlockReference
  2
SW_CENTERMARKSYMBOL_2
 10
225.5855938204
 20
272.398292688
 30
0.0
  0
INSERT
  5
CE
330
1F
100
AcDbEntity
  8
FORMAT
 62
     7
100
AcDbBlockReference
  2
SW_CENTERMARKSYMBOL_3
 10
291.8178906352
 20
206.1659958732
 30
0.0
  0
INSERT
  5
DA
330
1F
100
AcDbEntity
  8
FORMAT
 62
     7
100
AcDbBlockReference
  2
SW_CENTERMARKSYMBOL_4
 10
316.0605938204
 20
115.6909958732
 30
0.0
  0
INSERT
  5
E6
330
1F
100
AcDbEntity
  8
FORMAT
 62
     7
100
AcDbBlockReference
  2
SW_CENTERMARKSYMBOL_5
 10
44.6355938204
 20
272.398292688
 30
0.0
  0
INSERT
  5
F2
330
1F
100
AcDbEntity
  8
FORMAT
 62
     7
100
AcDbBlockReference
  2
SW_CENTERMARKSYMBOL_6
 10
-21.5967029944
 20
206.1659958732
 30
0.0
  0
INSERT
  5
FE
330
1F
100
AcDbEntity
  8
FORMAT
 62
     7
100
AcDbBlockReference
  2
SW_CENTERMARKSYMBOL_7
 10
-45.8394061796
 20
115.6909958732
 30
0.0
  0
INSERT
  5
10A
330
1F
100
AcDbEntity
  8
FORMAT
 62
     7
100
AcDbBlockReference
  2
SW_CENTERMARKSYMBOL_8
 10
-21.5967029944
 20
25.2159958732
 30
0.0
  0
INSERT
  5
116
330
1F
100
AcDbEntity
  8
FORMAT
 62
     7
100
AcDbBlockReference
  2
SW_CENTERMARKSYMBOL_9
 10
44.6355938204
 20
-41.0163009416
 30
0.0
  0
INSERT
  5
122
330
1F
100
AcDbEntity
  8
FORMAT
 62
     7
100
AcDbBlockReference
  2
SW_CENTERMARKSYMBOL_10
 10
135.1105938204
 20
-65.2590041268
 30
0.0
  0
INSERT
  5
12E
330
1F
100
AcDbEntity
  8
FORMAT
 62
     7
100
AcDbBlockReference
  2
SW_CENTERMARKSYMBOL_11
 10
225.5855938204
 20
-41.0163009416
 30
0.0
  0
INSERT
  5
13A
330
1F
100
AcDbEntity
  8
FORMAT
 62
     7
100
AcDbBlockReference
  2
SW_CENTERMARKSYMBOL_12
 10
291.8178906352
 20
25.2159958732
 30
0.0
  0
LINE
  5
13B
330
1F
100
AcDbEntity
  8
0
  6
Continuous
 62
     7
370
    25
100
AcDbLine
 10
-258.5066576371
 20
321.6909958732
 30
0.0
 11
-288.5066576371
 21
321.6909958732
 31
0.0
  0
LINE
  5
13C
330
1F
100
AcDbEntity
  8
0
  6
Continuous
 62
     7
370
    25
100
AcDbLine
 10
-288.5066576371
 20
-90.3090041268
 30
0.0
 11
-258.5066576371
 21
-90.3090041268
 31
0.0
  0
ARC
  5
13D
330
1F
100
AcDbEntity
  8
0
  6
Continuous
 62
     7
370
    25
100
AcDbCircle
 10
-258.5066576371
 20
-89.3090041268
 30
0.0
 40
1.0
100
AcDbArc
 50
270.0
 51
0.0
  0
ARC
  5
13E
330
1F
100
AcDbEntity
  8
0
  6
Continuous
 62
     7
370
    25
100
AcDbCircle
 10
-258.5066576371
 20
320.6909958732
 30
0.0
 40
1.000000000000057
100
AcDbArc
 50
0.0
 51
90.0
  0
ARC
  5
13F
330
1F
100
AcDbEntity
  8
0
  6
Continuous
 62
     7
370
    25
100
AcDbCircle
 10
-288.5066576371
 20
-89.3090041268
 30
0.0
 40
1.0
100
AcDbArc
 50
180.0
 51
270.0
  0
ARC
  5
140
330
1F
100
AcDbEntity
  8
0
  6
Continuous
 62
     7
370
    25
100
AcDbCircle
 10
-288.5066576371
 20
320.6909958732
 30
0.0
 40
1.000000000000057
100
AcDbArc
 50
90.0
 51
180.0
  0
LINE
  5
141
330
1F
100
AcDbEntity
  8
0
  6
Continuous
 62
     7
370
    25
100
AcDbLine
 10
-257.5066576371
 20
115.6909958732
 30
0.0
 11
-257.5066576371
 21
-89.3090041268
 31
0.0
  0
LINE
  5
142
330
1F
100
AcDbEntity
  8
0
  6
Continuous
 62
     7
370
    25
100
AcDbLine
 10
-257.5066576371
 20
320.6909958732
 30
0.0
 11
-257.5066576371
 21
115.6909958732
 31
0.0
  0
LINE
  5
143
330
1F
100
AcDbEntity
  8
0
  6
Continuous
 62
     7
370
    25
100
AcDbLine
 10
-289.5066576371
 20
115.6909958732
 30
0.0
 11
-289.5066576371
 21
320.6909958732
 31
0.0
  0
LINE
  5
144
330
1F
100
AcDbEntity
  8
0
  6
Continuous
 62
     7
370
    25
100
AcDbLine
 10
-289.5066576371
 20
-89.3090041268
 30
0.0
 11
-289.5066576371
 21
115.6909958732
 31
0.0
  0
LINE
  5
145
330
1F
100
AcDbEntity
  8
0
  6
Continuous
 62
     1
370
    25
100
AcDbLine
 10
-288.5066576371
 20
115.6909958732
 30
0.0
 11
-288.5066576371
 21
-90.3090041268
 31
0.0
  0
LINE
  5
146
330
1F
100
AcDbEntity
  8
0
  6
Continuous
 62
     1
370
    25
100
AcDbLine
 10
-288.5066576371
 20
321.6909958732
 30
0.0
 11
-288.5066576371
 21
115.6909958732
 31
0.0
  0
LINE
  5
147
330
1F
100
AcDbEntity
  8
0
  6
Continuous
 62
     1
370
    25
100
AcDbLine
 10
-258.5066576371
 20
115.6909958732
 30
0.0
 11
-258.5066576371
 21
321.6909958732
 31
0.0
  0
LINE
  5
148
330
1F
100
AcDbEntity
  8
0
  6
Continuous
 62
     1
370
    25
100
AcDbLine
 10
-258.5066576371
 20
-90.3090041268
 30
0.0
 11
-258.5066576371
 21
115.6909958732
 31
0.0
  0
LINE
  5
149
330
1F
100
AcDbEntity
  8
0
  6
Continuous
 62
     7
370
    25
100
AcDbLine
 10
546.7829792566
 20
-90.3090041268
 30
0.0
 11
576.7829792566
 21
-90.3090041268
 31
0.0
  0
LINE
  5
14A
330
1F
100
AcDbEntity
  8
0
  6
Continuous
 62
     7
370
    25
100
AcDbLine
 10
576.7829792566
 20
321.6909958732
 30
0.0
 11
546.7829792566
 21
321.6909958732
 31
0.0
  0
ARC
  5
14B
330
1F
100
AcDbEntity
  8
0
  6
Continuous
 62
     7
370
    25
100
AcDbCircle
 10
546.7829792566
 20
320.6909958732
 30
0.0
 40
1.000000000000057
100
AcDbArc
 50
90.0
 51
180.0
  0
ARC
  5
14C
330
1F
100
AcDbEntity
  8
0
  6
Continuous
 62
     7
370
    25
100
AcDbCircle
 10
546.7829792566
 20
-89.3090041268
 30
0.0
 40
1.0
100
AcDbArc
 50
180.0
 51
270.0
  0
ARC
  5
14D
330
1F
100
AcDbEntity
  8
0
  6
Continuous
 62
     7
370
    25
100
AcDbCircle
 10
576.7829792566
 20
320.6909958732
 30
0.0
 40
1.000000000000057
100
AcDbArc
 50
0.0
 51
90.0
  0
ARC
  5
14E
330
1F
100
AcDbEntity
  8
0
  6
Continuous
 62
     7
370
    25
100
AcDbCircle
 10
576.7829792566
 20
-89.3090041268
 30
0.0
 40
1.0
100
AcDbArc
 50
270.0
 51
0.0
  0
LINE
  5
14F
330
1F
100
AcDbEntity
  8
0
  6
Continuous
 62
     7
370
    25
100
AcDbLine
 10
545.7829792566
 20
-89.3090041268
 30
0.0
 11
545.7829792566
 21
320.6909958732
 31
0.0
  0
LINE
  5
150
330
1F
100
AcDbEntity
  8
0
  6
Continuous
 62
     7
370
    25
100
AcDbLine
 10
577.7829792566
 20
320.6909958732
 30
0.0
 11
577.7829792566
 21
-89.3090041268
 31
0.0
  0
LINE
  5
151
330
1F
100
AcDbEntity
  8
0
  6
Continuous
 62
     1
370
    25
100
AcDbLine
 10
576.7829792566
 20
-90.3090041268
 30
0.0
 11
576.7829792566
 21
321.6909958732
 31
0.0
  0
LINE
  5
152
330
1F
100
AcDbEntity
  8
0
  6
Continuous
 62
     1
370
    25
100
AcDbLine
 10
546.7829792566
 20
321.6909958732
 30
0.0
 11
546.7829792566
 21
-90.3090041268
 31
0.0
  0
LINE
  5
153
330
1F
100
AcDbEntity
  8
0
  6
Continuous
 62
     7
370
    25
100
AcDbLine
 10
341.1105938204
 20
518.0425503871
 30
0.0
 11
341.1105938204
 21
548.0425503871
 31
0.0
  0
LINE
  5
154
330
1F
100
AcDbEntity
  8
0
  6
Continuous
 62
     7
370
    25
100
AcDbLine
 10
-70.8894061796
 20
548.0425503871
 30
0.0
 11
-70.8894061796
 21
518.0425503871
 31
0.0
  0
ARC
  5
155
330
1F
100
AcDbEntity
  8
0
  6
Continuous
 62
     7
370
    25
100
AcDbCircle
 10
-69.8894061796
 20
518.0425503871
 30
0.0
 40
1.0
100
AcDbArc
 50
180.0
 51
270.0
  0
ARC
  5
156
330
1F
100
AcDbEntity
  8
0
  6
Continuous
 62
     7
370
    25
100
AcDbCircle
 10
340.1105938204
 20
518.0425503871
 30
0.0
 40
1.0
100
AcDbArc
 50
270.0
 51
0.0
  0
ARC
  5
157
330
1F
100
AcDbEntity
  8
0
  6
Continuous
 62
     7
370
    25
100
AcDbCircle
 10
-69.8894061796
 20
548.0425503871
 30
0.0
 40
1.0
100
AcDbArc
 50
90.0
 51
180.0
  0
ARC
  5
158
330
1F
100
AcDbEntity
  8
0
  6
Continuous
 62
     7
370
    25
100
AcDbCircle
 10
340.1105938204
 20
548.0425503871
 30
0.0
 40
1.0
100
AcDbArc
 50
0.0
 51
90.0
  0
LINE
  5
159
330
1F
100
AcDbEntity
  8
0
  6
Continuous
 62
     7
370
    25
100
AcDbLine
 10
340.1105938204
 20
517.0425503871
 30
0.0
 11
-69.8894061796
 21
517.0425503871
 31
0.0
  0
LINE
  5
15A
330
1F
100
AcDbEntity
  8
0
  6
Continuous
 62
     7
370
    25
100
AcDbLine
 10
340.1105938204
 20
549.0425503871
 30
0.0
 11
-69.8894061796
 21
549.0425503871
 31
0.0
  0
LINE
  5
15B
330
1F
100
AcDbEntity
  8
0
  6
Continuous
 62
     1
370
    25
100
AcDbLine
 10
341.1105938204
 20
548.0425503871
 30
0.0
 11
-70.8894061796
 21
548.0425503871
 31
0.0
  0
LINE
  5
15C
330
1F
100
AcDbEntity
  8
0
  6
Continuous
 62
     1
370
    25
100
AcDbLine
 10
-70.8894061796
 20
518.0425503871
 30
0.0
 11
341.1105938204
 21
518.0425503871
 31
0.0
  0
LINE
  5
15D
330
1F
100
AcDbEntity
  8
0
  6
Continuous
 62
     7
370
    25
100
AcDbLine
 10
-70.8894061796
 20
-305.6043934399
 30
0.0
 11
-70.8894061796
 21
-335.6043934399
 31
0.0
  0
LINE
  5
15E
330
1F
100
AcDbEntity
  8
0
  6
Continuous
 62
     7
370
    25
100
AcDbLine
 10
341.1105938204
 20
-335.6043934399
 30
0.0
 11
341.1105938204
 21
-305.6043934399
 31
0.0
  0
ARC
  5
15F
330
1F
100
AcDbEntity
  8
0
  6
Continuous
 62
     7
370
    25
100
AcDbCircle
 10
340.1105938204
 20
-305.6043934399
 30
0.0
 40
1.0
100
AcDbArc
 50
0.0
 51
90.0
  0
ARC
  5
160
330
1F
100
AcDbEntity
  8
0
  6
Continuous
 62
     7
370
    25
100
AcDbCircle
 10
-69.8894061796
 20
-305.6043934399
 30
0.0
 40
1.0
100
AcDbArc
 50
90.0
 51
180.0
  0
ARC
  5
161
330
1F
100
AcDbEntity
  8
0
  6
Continuous
 62
     7
370
    25
100
AcDbCircle
 10
340.1105938204
 20
-335.6043934399
 30
0.0
 40
1.0
100
AcDbArc
 50
270.0
 51
0.0
  0
ARC
  5
162
330
1F
100
AcDbEntity
  8
0
  6
Continuous
 62
     7
370
    25
100
AcDbCircle
 10
-69.8894061796
 20
-335.6043934399
 30
0.0
 40
1.0
100
AcDbArc
 50
180.0
 51
270.0
  0
LINE
  5
163
330
1F
100
AcDbEntity
  8
0
  6
Continuous
 62
     7
370
    25
100
AcDbLine
 10
340.1105938204
 20
-304.6043934399
 30
0.0
 11
-69.8894061796
 21
-304.6043934399
 31
0.0
  0
LINE
  5
164
330
1F
100
AcDbEntity
  8
0
  6
Continuous
 62
     7
370
    25
100
AcDbLine
 10
340.1105938204
 20
-336.6043934399
 30
0.0
 11
-69.8894061796
 21
-336.6043934399
 31
0.0
  0
LINE
  5
165
330
1F
100
AcDbEntity
  8
0
  6
Continuous
 62
     1
370
    25
100
AcDbLine
 10
-70.8894061796
 20
-335.6043934399
 30
0.0
 11
341.1105938204
 21
-335.6043934399
 31
0.0
  0
LINE
  5
166
330
1F
100
AcDbEntity
  8
0
  6
Continuous
 62
     1
370
    25
100
AcDbLine
 10
341.1105938204
 20
-305.6043934399
 30
0.0
 11
-70.8894061796
 21
-305.6043934399
 31
0.0
  0
SPLINE
  5
167
330
1F
100
AcDbEntity
  8
0
  6
Continuous
 62
     7
370
    25
100
AcDbSpline
210
0.0
220
0.0
230
1.0
 70
     8
 71
     3
 72
    74
 73
    70
 74
     0
 42
0.00000001
 43
0.00000001
 40
0.0
 40
0.0
 40
0.0
 40
0.0
 40
0.0139467908902209
 40
0.0288755977735496
 40
0.0438121095240111
 40
0.0587557594701603
 40
0.0737057749993347
 40
0.0886612709896237
 40
0.1036213281038403
 40
0.1185850522304725
 40
0.133551615059792
 40
0.1485202781103213
 40
0.1634904036080539
 40
0.1784614558017238
 40
0.1934329959331741
 40
0.2084046349779261
 40
0.2233760628756429
 40
0.2383470933888353
 40
0.2533175929058056
 40
0.2682874710872653
 40
0.2832566726885403
 40
0.2982251705765574
 40
0.3131929598798238
 40
0.3281600531636897
 40
0.3431264765039885
 40
0.3580922663296134
 40
0.3730574669116331
 40
0.3880221283884835
 40
0.4029863052305319
 40
0.4179500550611635
 40
0.4329134377644956
 40
0.4478765148212508
 40
0.4628393488241748
 40
0.477802003132568
 40
0.4927645416321208
 40
0.5077270285714041
 40
0.5226895284502254
 40
0.5376520873351432
 40
0.5526147670782029
 40
0.5675776325080335
 40
0.5825407483931392
 40
0.5975041792918061
 40
0.612467989331314
 40
0.6274322418880902
 40
0.6423969991358103
 40
0.657362321422035
 40
0.6723282664259246
 40
0.6872948880399037
 40
0.7022622349066621
 40
0.7172303485299006
 40
0.7321992608629101
 40
0.7471689912644502
 40
0.7621395426979664
 40
0.7771108970403732
 40
0.792083009365075
 40
0.8070558010764904
 40
0.8220291518098198
 40
0.8370028900830693
 40
0.8519767515379565
 40
0.8669503424392412
 40
0.8819232423297753
 40
0.8968949327024518
 40
0.9118647900218687
 40
0.9268320842992385
 40
0.941795986344064
 40
0.9567555873208784
 40
0.9717099342788499
 40
0.9866580845430697
 40
1.0
 40
1.0
 40
1.0
 40
1.0
 10
653.5235935438504
 20
-178.8330496985454
 30
0.0
 10
651.9757850748929
 20
-178.698622742527
 30
0.0
 10
648.7711844515728
 20
-178.4203036121649
 30
0.0
 10
643.7782243799884
 20
-178.3574161204084
 30
0.0
 10
638.5852828874891
 20
-178.5580417396219
 30
0.0
 10
633.2996342786672
 20
-179.0542074999667
 30
0.0
 10
627.9326653774923
 20
-179.8369794763931
 30
0.0
 10
622.491909165257
 20
-180.9074163669772
 30
0.0
 10
616.986093322164
 20
-182.2632831720003
 30
0.0
 10
611.4237510415321
 20
-183.9026220820411
 30
0.0
 10
605.8135624984654
 20
-185.8228081632695
 30
0.0
 10
600.1642372123133
 20
-188.0208179912596
 30
0.0
 10
594.4845238991944
 20
-190.4931739470289
 30
0.0
 10
588.7831897046893
 20
-193.2359752150801
 30
0.0
 10
583.0690151128815
 20
-196.2449021658005
 30
0.0
 10
577.3507825869377
 20
-199.515227632659
 30
0.0
 10
571.6372591926854
 20
-203.0418303227884
 30
0.0
 10
565.9371820518695
 20
-206.81920876585
 30
0.0
 10
560.2592489754064
 20
-210.8414921178064
 30
0.0
 10
554.6121159002232
 20
-215.1024449058158
 30
0.0
 10
549.0043862302997
 20
-219.5954763128424
 30
0.0
 10
543.4445998299411
 20
-224.3136497227256
 30
0.0
 10
537.9412217119708
 20
-229.2496926258214
 30
0.0
 10
532.5026304781036
 20
-234.3960069591784
 30
0.0
 10
527.1371065773317
 20
-239.7446799282506
 30
0.0
 10
521.852820449682
 20
-245.2874953366798
 30
0.0
 10
516.6578206206206
 20
-251.015945434453
 30
0.0
 10
511.560021807186
 20
-256.9212432825472
 30
0.0
 10
506.5671930918093
 20
-262.9943356231153
 30
0.0
 10
501.686946214442
 20
-269.225916237716
 30
0.0
 10
496.9267240284972
 20
-275.6064397713929
 30
0.0
 10
492.2937891614052
 20
-282.126135997106
 30
0.0
 10
487.795212916431
 20
-288.7750244927158
 30
0.0
 10
483.4378644487882
 20
-295.542929701051
 30
0.0
 10
479.2284002459105
 20
-302.4194963425387
 30
0.0
 10
475.1732539393182
 20
-309.3942051485217
 30
0.0
 10
471.2786280864226
 20
-316.4563859575316
 30
0.0
 10
467.5504830371703
 20
-323.5952363105725
 30
0.0
 10
463.9945275518149
 20
-330.7998384688692
 30
0.0
 10
460.6162088528774
 20
-338.0591792065919
 30
0.0
 10
457.4207058547951
 20
-345.3621642202194
 30
0.0
 10
454.4129216737458
 20
-352.6976346255096
 30
0.0
 10
451.5974763646321
 20
-360.0543840005986
 30
0.0
 10
448.9787001428839
 20
-367.4211754685575
 30
0.0
 10
446.5606271029254
 20
-374.7867587772348
 30
0.0
 10
444.3469894425714
 20
-382.1398873316953
 30
0.0
 10
442.3412121993173
 20
-389.469335131715
 30
0.0
 10
440.5464085002411
 20
-396.7639135635604
 30
0.0
 10
438.9653753216837
 20
-404.0124879918588
 30
0.0
 10
437.6005897476719
 20
-411.2039940938845
 30
0.0
 10
436.4542057067373
 20
-418.327453875423
 30
0.0
 10
435.5280511548003
 20
-425.3719913051655
 30
0.0
 10
434.8236256569834
 20
-432.3268475038054
 30
0.0
 10
434.3420983019389
 20
-439.1813954274203
 30
0.0
 10
434.0843058628793
 20
-445.9251539886596
 30
0.0
 10
434.0507510835693
 20
-452.5478015865523
 30
0.0
 10
434.2416009785883
 20
-459.0391889937078
 30
0.0
 10
434.6566845762939
 20
-465.3893473438118
 30
0.0
 10
435.2954892578124
 20
-471.5884924118678
 30
0.0
 10
436.1571556529541
 20
-477.6270468521231
 30
0.0
 10
437.2404778856899
 20
-483.495651596835
 30
0.0
 10
438.5438873671395
 20
-489.1852011893594
 30
0.0
 10
440.0654979425511
 20
-494.6867864921484
 30
0.0
 10
441.8029084294277
 20
-499.991942110489
 30
0.0
 10
443.7539120186156
 20
-505.091797373203
 30
0.0
 10
445.9138239993506
 20
-509.9803300370684
 30
0.0
 10
448.2854311794817
 20
-514.6423298726465
 30
0.0
 10
450.7507089350413
 20
-518.9395016749899
 30
0.0
 10
452.5235564103839
 20
-521.5624052350323
 30
0.0
 10
453.3596513621312
 20
-522.799396265548
 30
0.0
  0
LINE
  5
168
330
1F
100
AcDbEntity
  8
0
  6
Continuous
 62
     7
370
    25
100
AcDbLine
 10
704.2360912018
 20
-200.3777507673
 30
0.0
 11
683.0228877662
 21
-188.13162909
 31
0.0
  0
LINE
  5
169
330
1F
100
AcDbEntity
  8
0
  6
Continuous
 62
     7
370
    25
100
AcDbLine
 10
477.0396288431
 20
-544.9437603908
 30
0.0
 11
498.2528322787
 21
-557.1898820681
 31
0.0
  0
SPLINE
  5
16A
330
1F
100
AcDbEntity
  8
0
  6
Continuous
 62
     7
370
    25
100
AcDbSpline
210
0.0
220
0.0
230
1.0
 70
     8
 71
     3
 72
    61
 73
    57
 74
     0
 42
0.00000001
 43
0.00000001
 40
0.0
 40
0.0
 40
0.0
 40
0.0
 40
0.0081652694915132
 40
0.0268949401591774
 40
0.0456343671222414
 40
0.0643828977738656
 40
0.0831395992335606
 40
0.1019033779971497
 40
0.1206730820082005
 40
0.1394475795097873
 40
0.1582258139682745
 40
0.1770068375829075
 40
0.1957898275060774
 40
0.2145740892921102
 40
0.233359051725692
 40
0.2521442277811452
 40
0.2709291877782117
 40
0.2897136851183025
 40
0.3084975414372124
 40
0.3272806346244496
 40
0.3460628882979911
 40
0.3648442627822847
 40
0.3836247475268538
 40
0.4024043548376119
 40
0.4211831147640629
 40
0.4399610709794829
 40
0.4587382774983459
 40
0.477514796089523
 40
0.4962906942608278
 40
0.5150660437079532
 40
0.533840919137378
 40
0.5526153973874637
 40
0.5713895567847931
 40
0.5901634766832816
 40
0.608937237142388
 40
0.6277109187074031
 40
0.6464846022600225
 40
0.6652583503199075
 40
0.6840322357230968
 40
0.7028063398092798
 40
0.7215807438694735
 40
0.7403555289695037
 40
0.7591307756910535
 40
0.7779065637549987
 40
0.7966829714868647
 40
0.8154600750765113
 40
0.83423794757443
 40
0.8530166575552344
 40
0.8717962673650062
 40
0.8905768308530332
 40
0.9093583904709012
 40
0.9281409736034042
 40
0.9469245879784683
 40
0.9657092159898849
 40
0.9844948077623437
 40
0.9999999999999999
 40
0.9999999999999999
 40
0.9999999999999999
 40
0.9999999999999999
 10
529.362730713638
 20
-566.6074007177597
 30
0.0
 10
530.0832702601061
 20
-566.6744551690792
 30
0.0
 10
532.4565989058688
 20
-566.8953205621345
 30
0.0
 10
536.5964136877047
 20
-566.9638838048803
 30
0.0
 10
541.76959601716
 20
-566.8223434208878
 30
0.0
 10
547.0407933764876
 20
-566.3747546907546
 30
0.0
 10
552.3937295835448
 20
-565.6432061582833
 30
0.0
 10
557.8222150043241
 20
-564.623003433696
 30
0.0
 10
563.3171874652862
 20
-563.3172487367808
 30
0.0
 10
568.8702231885045
 20
-561.7275616947917
 30
0.0
 10
574.4726273172073
 20
-559.8565547409512
 30
0.0
 10
580.1157046680978
 20
-557.7071543154682
 30
0.0
 10
585.7907095558098
 20
-555.282766571072
 30
0.0
 10
591.4888779227223
 20
-552.5872167952184
 30
0.0
 10
597.2014317580129
 20
-549.6247517211517
 30
0.0
 10
602.919586930007
 20
-546.4000280223565
 30
0.0
 10
608.6345729441648
 20
-542.9180984963662
 30
0.0
 10
614.3376456009714
 20
-539.1843993205258
 30
0.0
 10
620.0201008011963
 20
-535.2047362788481
 30
0.0
 10
625.6732744833939
 20
-530.9852813977957
 30
0.0
 10
631.2885532184963
 20
-526.5325636968123
 30
0.0
 10
636.8573851583482
 20
-521.8534596961688
 30
0.0
 10
642.3712912975378
 20
-516.9551835811699
 30
0.0
 10
647.8218769941276
 20
-511.8452769423829
 30
0.0
 10
653.2008436841516
 20
-506.531598041061
 30
0.0
 10
658.5000007225316
 20
-501.0223105698414
 30
0.0
 10
663.7112772845556
 20
-495.325871895899
 30
0.0
 10
668.8267342660137
 20
-489.4510207865458
 30
0.0
 10
673.838576125096
 20
-483.4067646268251
 30
0.0
 10
678.7391626145065
 20
-477.2023661455983
 30
0.0
 10
683.5210203574077
 20
-470.8473296716108
 30
0.0
 10
688.1768542256101
 20
-464.3513869445254
 30
0.0
 10
692.6995584826631
 20
-457.7244825083872
 30
0.0
 10
697.0822276582215
 20
-450.9767587167212
 30
0.0
 10
701.3181671232987
 20
-444.118540379637
 30
0.0
 10
705.4009033385778
 20
-437.1603190845685
 30
0.0
 10
709.3241924558899
 20
-430.1127395481877
 30
0.0
 10
713.0820308172829
 20
-422.9865822379838
 30
0.0
 10
716.6686647856469
 20
-415.7927458315822
 30
0.0
 10
720.078600519359
 20
-408.5422280716434
 30
0.0
 10
723.3066113965461
 20
-401.2461101499348
 30
0.0
 10
726.3477452666261
 20
-393.9155408289245
 30
0.0
 10
729.1973318012041
 20
-386.5617194075927
 30
0.0
 10
731.8509893431784
 20
-379.1958786515787
 30
0.0
 10
734.3046313333462
 20
-371.8292676769487
 30
0.0
 10
736.554471962794
 20
-364.4731350283112
 30
0.0
 10
738.5970323207582
 20
-357.1387112647777
 30
0.0
 10
740.4291422719248
 20
-349.8371938416582
 30
0.0
 10
742.0479558446622
 20
-342.5797241235226
 30
0.0
 10
743.4509137839236
 20
-335.3773947223303
 30
0.0
 10
744.6359009494978
 20
-328.2411448824341
 30
0.0
 10
745.6006742295167
 20
-321.1820752314171
 30
0.0
 10
746.345011050094
 20
-314.2101991258822
 30
0.0
 10
746.8627017874569
 20
-307.3390312938744
 30
0.0
 10
747.15347055497
 20
-300.9626010980948
 30
0.0
 10
747.1864428635429
 20
-296.9268307921118
 30
0.0
 10
747.2013518834939
 20
-295.1019849559001
 30
0.0
  0
SPLINE
  5
16B
330
1F
100
AcDbEntity
  8
0
  6
Continuous
 62
     7
370
    25
100
AcDbSpline
210
0.0
220
0.0
230
1.0
 70
     8
 71
     3
 72
    22
 73
    18
 74
     0
 42
0.00000001
 43
0.00000001
 40
0.0
 40
0.0
 40
0.0
 40
0.0
 40
0.0387496179331222
 40
0.1123582045999928
 40
0.1859725164900612
 40
0.2595871047341148
 40
0.333200032307005
 40
0.4068091506805772
 40
0.4804118218605853
 40
0.5540048879082072
 40
0.6275846702312972
 40
0.7011470145356459
 40
0.7746873995164066
 40
0.8482011269942387
 40
0.9216836064654584
 40
0.9951307361505718
 40
0.9999999999999999
 40
0.9999999999999999
 40
0.9999999999999999
 40
0.9999999999999999
 10
747.2013518834939
 20
-295.1019849559001
 30
0.0
 10
747.1950975826982
 20
-293.9470685134549
 30
0.0
 10
747.1769626423833
 20
-290.598278387056
 30
0.0
 10
746.9754707487366
 20
-285.1562090692643
 30
0.0
 10
746.5234132276365
 20
-278.8306822787149
 30
0.0
 10
745.8447078485055
 20
-272.6594427212364
 30
0.0
 10
744.9441426244679
 20
-266.6500042766315
 30
0.0
 10
743.8219555024649
 20
-260.812251954575
 30
0.0
 10
742.4800361635948
 20
-255.1551182737649
 30
0.0
 10
740.9203295362389
 20
-249.6874231202531
 30
0.0
 10
739.145062051658
 20
-244.4178934300353
 30
0.0
 10
737.1574678300772
 20
-239.3541575149377
 30
0.0
 10
734.9586911659443
 20
-234.5066375129911
 30
0.0
 10
732.5594691344335
 20
-229.8738642029825
 30
0.0
 10
729.9365288841477
 20
-225.4971488681032
 30
0.0
 10
728.0479266387133
 20
-222.5756432203257
 30
0.0
 10
726.9801793079934
 20
-221.1847236839593
 30
0.0
 10
726.9137929073541
 20
-221.0982442904349
 30
0.0
  0
SPLINE
  5
16C
330
1F
100
AcDbEntity
  8
0
  6
Continuous
 62
     7
370
    25
100
AcDbSpline
210
0.0
220
0.0
230
1.0
 70
     8
 71
     3
 72
    20
 73
    16
 74
     0
 42
0.00000001
 43
0.00000001
 40
0.0
 40
0.0
 40
0.0
 40
0.0
 40
0.0166481805296819
 40
0.1006799056749119
 40
0.1846321499966002
 40
0.2685091542500347
 40
0.3523191308301183
 40
0.4360724399212131
 40
0.5197800917983659
 40
0.6034526824983636
 40
0.6870997445736723
 40
0.7707294317614648
 40
0.854348439875701
 40
0.9379620757859232
 40
1.0
 40
1.0
 40
1.0
 40
1.0
 10
666.1493296633339
 20
-254.1979535611009
 30
0.0
 10
666.3197851023706
 20
-254.4021092745572
 30
0.0
 10
667.3506147172571
 20
-255.6367413676637
 30
0.0
 10
669.0590518873857
 20
-258.1432453136292
 30
0.0
 10
671.2575371036496
 20
-261.7205063386859
 30
0.0
 10
673.2401919493641
 20
-265.548452694989
 30
0.0
 10
675.0235564726556
 20
-269.5910137126369
 30
0.0
 10
676.5984237812021
 20
-273.846912156105
 30
0.0
 10
677.9629413387731
 20
-278.3050743384969
 30
0.0
 10
679.1138816123905
 20
-282.9564624050772
 30
0.0
 10
680.0484896509649
 20
-287.7911819796575
 30
0.0
 10
680.7658752637152
 20
-292.7981735814059
 30
0.0
 10
681.2597028945297
 20
-297.96933652551
 30
0.0
 10
681.5215145133889
 20
-302.8263576339742
 30
0.0
 10
681.5497255446302
 20
-305.9974367973307
 30
0.0
 10
681.5617415767047
 20
-307.3481066332408
 30
0.0
  0
SPLINE
  5
16D
330
1F
100
AcDbEntity
  8
0
  6
Continuous
 62
     7
370
    25
100
AcDbSpline
210
0.0
220
0.0
230
1.0
 70
     8
 71
     3
 72
    53
 73
    49
 74
     0
 42
0.00000001
 43
0.00000001
 40
0.0
 40
0.0
 40
0.0
 40
0.0
 40
0.0115887835904758
 40
0.033627706263254
 40
0.0556693587949725
 40
0.0777123808725104
 40
0.0997570119170762
 40
0.1218033764404844
 40
0.1438515110809923
 40
0.1659013864822272
 40
0.187952924454852
 40
0.2100060112210082
 40
0.2320605074816735
 40
0.2541162559530584
 40
0.2761730869159472
 40
0.2982308222250438
 40
0.3202892781401248
 40
0.3423482672696737
 40
0.3644075998604425
 40
0.3864670846221426
 40
0.4085265156913308
 40
0.4305856494721537
 40
0.4526442927101168
 40
0.4747022522912362
 40
0.4967593358778882
 40
0.5188153529354066
 40
0.5408701163131644
 40
0.5629234445920497
 40
0.584975165461666
 40
0.6070251204560061
 40
0.629073171456354
 40
0.6511192094639803
 40
0.6731631662493127
 40
0.6952050295892559
 40
0.7172448628918862
 40
0.7392828300447349
 40
0.7613192262527938
 40
0.783354515366025
 40
0.805389372943357
 40
0.8274243963195026
 40
0.8494607275331314
 40
0.8714998537076759
 40
0.8935436462906772
 40
0.9155943768873266
 40
0.9376546906966038
 40
0.9597275135959564
 40
0.9818158671876762
 40
0.9999999999999999
 40
0.9999999999999999
 40
0.9999999999999999
 40
0.9999999999999999
 10
681.5617415767047
 20
-307.3481066332408
 30
0.0
 10
681.5555656207385
 20
-308.313861320352
 30
0.0
 10
681.5376445653059
 20
-311.1162361068849
 30
0.0
 10
681.3383768360984
 20
-315.8514170516751
 30
0.0
 10
680.8911715459824
 20
-321.5805619621262
 30
0.0
 10
680.2200079884996
 20
-327.4109065447203
 30
0.0
 10
679.3300540993052
 20
-333.3271807560266
 30
0.0
 10
678.2221191715
 20
-339.3169918071036
 30
0.0
 10
676.8988015017057
 20
-345.3669862596615
 30
0.0
 10
675.3628385622754
 20
-351.4638797498063
 30
0.0
 10
673.6175414359417
 20
-357.5942224217278
 30
0.0
 10
671.6666688976796
 20
-363.7445026438639
 30
0.0
 10
669.5144500816057
 20
-369.9011595486983
 30
0.0
 10
667.1655659278385
 20
-376.0506195066187
 30
0.0
 10
664.625140406159
 20
-382.1793257125675
 30
0.0
 10
661.898727950564
 20
-388.2737691652366
 30
0.0
 10
658.9923008166554
 20
-394.3205188308813
 30
0.0
 10
655.9122354272763
 20
-400.306251583818
 30
0.0
 10
652.6652980057481
 20
-406.2177817554211
 30
0.0
 10
649.2586301556285
 20
-412.0420891258617
 30
0.0
 10
645.6997352026946
 20
-417.7663446194314
 30
0.0
 10
641.9964594387413
 20
-423.377943480524
 30
0.0
 10
638.1569740086213
 20
-428.8645344571921
 30
0.0
 10
634.189754535323
 20
-434.2140500960847
 30
0.0
 10
630.1035653858632
 20
-439.4147293241283
 30
0.0
 10
625.907440597758
 20
-444.4551438839232
 30
0.0
 10
621.6106641895809
 20
-449.3242242212993
 30
0.0
 10
617.2227498514754
 20
-454.0112847964962
 30
0.0
 10
612.7534199983367
 20
-458.5060487911655
 30
0.0
 10
608.2125841529119
 20
-462.7986721796447
 30
0.0
 10
603.6103166064711
 20
-466.8797671254639
 30
0.0
 10
598.9568332813384
 20
-470.74042464959
 30
0.0
 10
594.2624676921084
 20
-474.3722364944653
 30
0.0
 10
589.5376458756856
 20
-477.7673160659496
 30
0.0
 10
584.7928601262396
 20
-480.9183182968351
 30
0.0
 10
580.0386413804217
 20
-483.8184581308149
 30
0.0
 10
575.2855299982091
 20
-486.4615274589573
 30
0.0
 10
570.5440451517278
 20
-488.8419092720508
 30
0.0
 10
565.8246758132
 20
-490.9545802312692
 30
0.0
 10
561.1378318613837
 20
-492.7951266967349
 30
0.0
 10
556.493799193694
 20
-494.3597734584424
 30
0.0
 10
551.902716452887
 20
-495.6453026476933
 30
0.0
 10
547.3744240802055
 20
-496.6493581399246
 30
0.0
 10
542.9189299108297
 20
-497.3692333703928
 30
0.0
 10
538.5445252301237
 20
-497.8063159756666
 30
0.0
 10
534.2647108659454
 20
-497.9493734107145
 30
0.0
 10
530.3204323713346
 20
-497.8435111462562
 30
0.0
 10
527.8609972581783
 20
-497.5536551018229
 30
0.0
 10
526.7504948101238
 20
-497.4227771432198
 30
0.0
  0
SPLINE
  5
16E
330
1F
100
AcDbEntity
  8
0
  6
Continuous
 62
     7
370
    25
100
AcDbSpline
210
0.0
220
0.0
230
1.0
 70
     8
 71
     3
 72
    13
 73
     9
 74
     0
 42
0.00000001
 43
0.00000001
 40
0.0
 40
0.0
 40
0.0
 40
0.0
 40
0.159123407551666
 40
0.3489243359101668
 40
0.5337127057620163
 40
0.7138036751313381
 40
0.8914734954455785
 40
1.0
 40
1.0
 40
1.0
 40
1.0
 10
698.8438556885629
 20
-362.6149324319775
 30
0.0
 10
699.1294537279857
 20
-362.7961507299059
 30
0.0
 10
699.755710466552
 20
-363.193524537018
 30
0.0
 10
700.5273149008209
 20
-364.1300591397392
 30
0.0
 10
701.176592254342
 20
-365.3460012319055
 30
0.0
 10
701.617280336003
 20
-366.7867730026867
 30
0.0
 10
701.8319042050763
 20
-368.1961695616182
 30
0.0
 10
701.8529030130348
 20
-369.1460167083824
 30
0.0
 10
701.8608658239779
 20
-369.5062015945671
 30
0.0
  0
SPLINE
  5
16F
330
1F
100
AcDbEntity
  8
0
  6
Continuous
 62
     7
370
    25
100
AcDbSpline
210
0.0
220
0.0
230
1.0
 70
     8
 71
     3
 72
    25
 73
    21
 74
     0
 42
0.00000001
 43
0.00000001
 40
0.0
 40
0.0
 40
0.0
 40
0.0
 40
0.029981289499649
 40
0.0873920697230733
 40
0.1449271686416336
 40
0.202568461361932
 40
0.2603033273812464
 40
0.3181021437489346
 40
0.3759289403483565
 40
0.433741780903362
 40
0.4914924287524605
 40
0.5491419464220161
 40
0.6066546078767443
 40
0.6640062006648614
 40
0.7212035308631851
 40
0.7783248726963025
 40
0.8355055469718391
 40
0.8931193692388959
 40
0.9518142198424695
 40
1.0
 40
1.0
 40
1.0
 40
1.0
 10
701.8608658239779
 20
-369.5062015945671
 30
0.0
 10
701.8550521414264
 20
-369.8207210299938
 30
0.0
 10
701.8381059139837
 20
-370.7375096301103
 30
0.0
 10
701.6475168304763
 20
-372.3543466325897
 30
0.0
 10
701.2188294340348
 20
-374.35338086002
 30
0.0
 10
700.5806424208853
 20
-376.3987253863245
 30
0.0
 10
699.7477447526876
 20
-378.4459221302074
 30
0.0
 10
698.7348592303074
 20
-380.4539909808264
 30
0.0
 10
697.5622599486353
 20
-382.38176202367
 30
0.0
 10
696.2538094462735
 20
-384.1899728913978
 30
0.0
 10
694.836859159054
 20
-385.8419993513629
 30
0.0
 10
693.3415808488148
 20
-387.3048586703803
 30
0.0
 10
691.8003470486273
 20
-388.55012963895
 30
0.0
 10
690.2471163844904
 20
-389.5547581041511
 30
0.0
 10
688.7162070535919
 20
-390.3023746779112
 30
0.0
 10
687.2419258859375
 20
-390.7828710815089
 30
0.0
 10
685.8533034245564
 20
-390.9972195755856
 30
0.0
 10
684.5783938168764
 20
-390.9409612059148
 30
0.0
 10
683.4886888770535
 20
-390.6746316005962
 30
0.0
 10
682.8943997386909
 20
-390.3074509016343
 30
0.0
 10
682.6264719994249
 20
-390.1419121289654
 30
0.0
  0
SPLINE
  5
170
330
1F
100
AcDbEntity
  8
0
  6
Continuous
 62
     7
370
    25
100
AcDbSpline
210
0.0
220
0.0
230
1.0
 70
     8
 71
     3
 72
    13
 73
     9
 74
     0
 42
0.00000001
 43
0.00000001
 40
0.0
 40
0.0
 40
0.0
 40
0.0
 40
0.1591234075516663
 40
0.348924335910152
 40
0.5337127057620036
 40
0.7138036751313197
 40
0.8914734954455613
 40
1.0
 40
1.0
 40
1.0
 40
1.0
 10
652.0105494772586
 20
-443.7325980383129
 30
0.0
 10
652.2961475166815
 20
-443.9138163362413
 30
0.0
 10
652.9224042552477
 20
-444.3111901433533
 30
0.0
 10
653.6940086895165
 20
-445.2477247460744
 30
0.0
 10
654.3432860430377
 20
-446.4636668382407
 30
0.0
 10
654.7839741246988
 20
-447.904438609022
 30
0.0
 10
654.9985979937721
 20
-449.3138351679536
 30
0.0
 10
655.0195968017306
 20
-450.2636823147178
 30
0.0
 10
655.0275596126738
 20
-450.6238672009026
 30
0.0
  0
SPLINE
  5
171
330
1F
100
AcDbEntity
  8
0
  6
Continuous
 62
     7
370
    25
100
AcDbSpline
210
0.0
220
0.0
230
1.0
 70
     8
 71
     3
 72
    25
 73
    21
 74
     0
 42
0.00000001
 43
0.00000001
 40
0.0
 40
0.0
 40
0.0
 40
0.0
 40
0.0299812894996494
 40
0.087392069723074
 40
0.1449271686416264
 40
0.2025684613619331
 40
0.2603033273812434
 40
0.318102143748931
 40
0.3759289403483601
 40
0.4337417809033696
 40
0.4914924287524729
 40
0.5491419464220246
 40
0.6066546078767474
 40
0.6640062006648699
 40
0.7212035308631929
 40
0.7783248726963089
 40
0.8355055469718485
 40
0.8931193692389041
 40
0.9518142198424828
 40
1.0
 40
1.0
 40
1.0
 40
1.0
 10
655.0275596126738
 20
-450.6238672009026
 30
0.0
 10
655.0217459301223
 20
-450.9383866363293
 30
0.0
 10
655.0047997026795
 20
-451.8551752364457
 30
0.0
 10
654.8142106191721
 20
-453.4720122389251
 30
0.0
 10
654.3855232227307
 20
-455.4710464663555
 30
0.0
 10
653.7473362095811
 20
-457.5163909926599
 30
0.0
 10
652.9144385413836
 20
-459.5635877365428
 30
0.0
 10
651.9015530190035
 20
-461.5716565871618
 30
0.0
 10
650.7289537373312
 20
-463.4994276300056
 30
0.0
 10
649.4205032349693
 20
-465.3076384977335
 30
0.0
 10
648.0035529477497
 20
-466.9596649576986
 30
0.0
 10
646.5082746375105
 20
-468.422524276716
 30
0.0
 10
644.9670408373229
 20
-469.6677952452856
 30
0.0
 10
643.413810173186
 20
-470.6724237104867
 30
0.0
 10
641.8829008422878
 20
-471.4200402842468
 30
0.0
 10
640.4086196746331
 20
-471.9005366878444
 30
0.0
 10
639.0199972132522
 20
-472.1148851819211
 30
0.0
 10
637.7450876055722
 20
-472.0586268122502
 30
0.0
 10
636.6553826657491
 20
-471.7922972069317
 30
0.0
 10
636.0610935273867
 20
-471.4251165079698
 30
0.0
 10
635.7931657881209
 20
-471.2595777353009
 30
0.0
  0
SPLINE
  5
172
330
1F
100
AcDbEntity
  8
0
  6
Continuous
 62
     7
370
    25
100
AcDbSpline
210
0.0
220
0.0
230
1.0
 70
     8
 71
     3
 72
    66
 73
    62
 74
     0
 42
0.00000001
 43
0.00000001
 40
0.0
 40
0.0
 40
0.0
 40
0.0
 40
0.0031512848993262
 40
0.020620634973945
 40
0.0380735154344313
 40
0.0555109416170288
 40
0.0729347016931547
 40
0.0903469839600358
 40
0.1077500769227371
 40
0.1251461601814703
 40
0.1425371798655906
 40
0.1599247908154264
 40
0.1773103452367129
 40
0.1946949099877774
 40
0.212079235812576
 40
0.2294638060080628
 40
0.2468490981909027
 40
0.2642354367680852
 40
0.2816230249125781
 40
0.2990119716446893
 40
0.3164023140485393
 40
0.3337940350752194
 40
0.3511870775399263
 40
0.3685813549467463
 40
0.3859767597333335
 40
0.4033731694557849
 40
0.4207704513534034
 40
0.4381684656557116
 40
0.4555670679254796
 40
0.4729661106739065
 40
0.4903654444374749
 40
0.5077649184698626
 40
0.5251643772601773
 40
0.5425636219498591
 40
0.5599625001211166
 40
0.5773608594165782
 40
0.5947585480084014
 40
0.6121554153603953
 40
0.6295513134076579
 40
0.6469460983162295
 40
0.6643396330243999
 40
0.6817317908174356
 40
0.6991224602489633
 40
0.7165115517950242
 40
0.7338990067080299
 40
0.751284808621219
 40
0.7686689985264287
 40
0.7860516937844879
 40
0.8034331117870152
 40
0.8208135987043561
 40
0.8381936633263386
 40
0.8555737864742056
 40
0.872954805679455
 40
0.890337855434701
 40
0.9077243700237402
 40
0.9251160992496859
 40
0.9425150929806483
 40
0.9599236360533869
 40
0.9773441131989016
 40
0.9947787871925311
 40
1.0
 40
1.0
 40
1.0
 40
1.0
 10
514.7467666469472
 20
-490.6392010916551
 30
0.0
 10
514.5931327254024
 20
-490.4512425694899
 30
0.0
 10
513.5878193002449
 20
-489.2213239173748
 30
0.0
 10
511.9131442604827
 20
-486.7104473557749
 30
0.0
 10
509.7406610206484
 20
-483.102566642384
 30
0.0
 10
507.785149116533
 20
-479.2445028471527
 30
0.0
 10
506.0292906418257
 20
-475.17312476323
 30
0.0
 10
504.4824398382747
 20
-470.8895581100827
 30
0.0
 10
503.146322285517
 20
-466.4049991417019
 30
0.0
 10
502.0242170656171
 20
-461.7284762397193
 30
0.0
 10
501.1184860568475
 20
-456.8701391525092
 30
0.0
 10
500.4312137767184
 20
-451.8403791245344
 30
0.0
 10
499.9640113180739
 20
-446.650052688709
 30
0.0
 10
499.7180453356369
 20
-441.3104057584933
 30
0.0
 10
499.6940083989291
 20
-435.8330716662085
 30
0.0
 10
499.8921083990655
 20
-430.2300203778611
 30
0.0
 10
500.3120615751816
 20
-424.5135209858827
 30
0.0
 10
500.9530913953159
 20
-418.6961022465143
 30
0.0
 10
501.8139262112205
 20
-412.7905387121993
 30
0.0
 10
502.8927996091599
 20
-406.8098172491535
 30
0.0
 10
504.1874530304641
 20
-400.767103714188
 30
0.0
 10
505.6951403328857
 20
-394.6757099432528
 30
0.0
 10
507.412633991018
 20
-388.5490611415925
 30
0.0
 10
509.3362327051609
 20
-382.4006636945369
 30
0.0
 10
511.4617702391004
 20
-376.2440733910425
 30
0.0
 10
513.7846253515461
 20
-370.0928640396028
 30
0.0
 10
516.2997327194635
 20
-363.9605964556627
 30
0.0
 10
519.001594776605
 20
-357.86078780477
 30
0.0
 10
521.8842944085056
 20
-351.8068812934526
 30
0.0
 10
524.9415084576758
 20
-345.8122162082176
 30
0.0
 10
528.1665220013267
 20
-339.8899983106813
 30
0.0
 10
531.5522431150898
 20
-334.0532710420673
 30
0.0
 10
535.0912156399825
 20
-328.3148913419476
 30
0.0
 10
538.7756381875262
 20
-322.6874956260118
 30
0.0
 10
542.5973816427337
 20
-317.1834712192068
 30
0.0
 10
546.5480104339607
 20
-311.8149245386466
 30
0.0
 10
550.6187977400646
 20
-306.5936591987081
 30
0.0
 10
554.8007444813479
 20
-301.5311495044474
 30
0.0
 10
559.0845989266473
 20
-296.6385144889599
 30
0.0
 10
563.4608769191368
 20
-291.9264925235202
 30
0.0
 10
567.9198827363488
 20
-287.4054165280147
 30
0.0
 10
572.4517306148489
 20
-283.0851898125389
 30
0.0
 10
577.0463669890283
 20
-278.9752625879698
 30
0.0
 10
581.6935935165395
 20
-275.0846091962042
 30
0.0
 10
586.3830909890912
 20
-271.4217061337958
 30
0.0
 10
591.1044442572621
 20
-267.9945109747541
 30
0.0
 10
595.8471683201932
 20
-264.8104423631823
 30
0.0
 10
600.6007357697534
 20
-261.8763612784141
 30
0.0
 10
605.3546057095917
 20
-259.1985540457635
 30
0.0
 10
610.098254500379
 20
-256.7827170850898
 30
0.0
 10
614.8211868866543
 20
-254.6339552866512
 30
0.0
 10
619.5129828721443
 20
-252.7567584880771
 30
0.0
 10
624.1633286670652
 20
-251.1550091862422
 30
0.0
 10
628.7620978659319
 20
-249.831918519137
 30
0.0
 10
633.2992800118224
 20
-248.7902595788362
 30
0.0
 10
637.7653664662798
 20
-248.0315618251869
 30
0.0
 10
642.1500484246551
 20
-247.5591999813748
 30
0.0
 10
646.4471950334057
 20
-247.3669691777694
 30
0.0
 10
650.6363216646972
 20
-247.4818961174519
 30
0.0
 10
653.7895841918007
 20
-247.7290222835842
 30
0.0
 10
655.5028008520973
 20
-248.031298499804
 30
0.0
 10
655.8976240098593
 20
-248.1009602378493
 30
0.0
  0
SPLINE
  5
173
330
1F
100
AcDbEntity
  8
0
  6
Continuous
 62
     7
370
    25
100
AcDbSpline
210
0.0
220
0.0
230
1.0
 70
     8
 71
     3
 72
    13
 73
     9
 74
     0
 42
0.00000001
 43
0.00000001
 40
0.0
 40
0.0
 40
0.0
 40
0.0
 40
0.159123407551669
 40
0.3489243359101429
 40
0.5337127057619807
 40
0.7138036751313216
 40
0.8914734954455651
 40
1.0
 40
1.0
 40
1.0
 40
1.0
 10
715.9860355051172
 20
-278.8424327101546
 30
0.0
 10
716.2716335445399
 20
-279.0236510080831
 30
0.0
 10
716.8978902831062
 20
-279.4210248151951
 30
0.0
 10
717.6694947173751
 20
-280.3575594179162
 30
0.0
 10
718.3187720708962
 20
-281.5735015100825
 30
0.0
 10
718.7594601525573
 20
-283.0142732808638
 30
0.0
 10
718.9740840216307
 20
-284.4236698397954
 30
0.0
 10
718.9950828295891
 20
-285.3735169865596
 30
0.0
 10
719.0030456405323
 20
-285.7337018727444
 30
0.0
  0
SPLINE
  5
174
330
1F
100
AcDbEntity
  8
0
  6
Continuous
 62
     7
370
    25
100
AcDbSpline
210
0.0
220
0.0
230
1.0
 70
     8
 71
     3
 72
    25
 73
    21
 74
     0
 42
0.00000001
 43
0.00000001
 40
0.0
 40
0.0
 40
0.0
 40
0.0
 40
0.0299812894996491
 40
0.0873920697230732
 40
0.1449271686416331
 40
0.2025684613619376
 40
0.2603033273812416
 40
0.3181021437489253
 40
0.3759289403483554
 40
0.4337417809033618
 40
0.491492428752461
 40
0.5491419464220144
 40
0.6066546078767396
 40
0.6640062006648595
 40
0.7212035308631847
 40
0.7783248726962995
 40
0.8355055469718377
 40
0.8931193692388942
 40
0.9518142198424677
 40
1.0
 40
1.0
 40
1.0
 40
1.0
 10
719.0030456405323
 20
-285.7337018727444
 30
0.0
 10
718.9972319579808
 20
-286.048221308171
 30
0.0
 10
718.9802857305381
 20
-286.9650099082875
 30
0.0
 10
718.7896966470307
 20
-288.581846910767
 30
0.0
 10
718.3610092505892
 20
-290.5808811381974
 30
0.0
 10
717.7228222374397
 20
-292.6262256645017
 30
0.0
 10
716.889924569242
 20
-294.6734224083846
 30
0.0
 10
715.8770390468619
 20
-296.6814912590035
 30
0.0
 10
714.7044397651898
 20
-298.6092623018472
 30
0.0
 10
713.395989262828
 20
-300.4174731695751
 30
0.0
 10
711.9790389756084
 20
-302.0694996295402
 30
0.0
 10
710.4837606653692
 20
-303.5323589485576
 30
0.0
 10
708.9425268651817
 20
-304.7776299171273
 30
0.0
 10
707.3892962010448
 20
-305.7822583823283
 30
0.0
 10
705.8583868701464
 20
-306.5298749560885
 30
0.0
 10
704.3841057024919
 20
-307.0103713596861
 30
0.0
 10
702.9954832411108
 20
-307.224719853763
 30
0.0
 10
701.7205736334308
 20
-307.1684614840921
 30
0.0
 10
700.6308686936078
 20
-306.9021318787736
 30
0.0
 10
700.0365795552452
 20
-306.5349511798116
 30
0.0
 10
699.7686518159793
 20
-306.3694124071428
 30
0.0
  0
SPLINE
  5
175
330
1F
100
AcDbEntity
  8
0
  6
Continuous
 62
     7
370
    25
100
AcDbSpline
210
0.0
220
0.0
230
1.0
 70
     8
 71
     3
 72
    13
 73
     9
 74
     0
 42
0.00000001
 43
0.00000001
 40
0.0
 40
0.0
 40
0.0
 40
0.0
 40
0.1591234075516673
 40
0.3489243359101269
 40
0.5337127057619658
 40
0.7138036751312796
 40
0.8914734954455155
 40
1.0
 40
1.0
 40
1.0
 40
1.0
 10
588.0350634494027
 20
-500.4600165380455
 30
0.0
 10
588.3206614888255
 20
-500.6412348359739
 30
0.0
 10
588.9469182273918
 20
-501.0386086430859
 30
0.0
 10
589.7185226616608
 20
-501.9751432458069
 30
0.0
 10
590.3678000151821
 20
-503.191085337973
 30
0.0
 10
590.8084880968431
 20
-504.6318571087543
 30
0.0
 10
591.0231119659167
 20
-506.0412536676861
 30
0.0
 10
591.0441107738751
 20
-506.9911008144505
 30
0.0
 10
591.0520735848182
 20
-507.3512857006355
 30
0.0
  0
SPLINE
  5
176
330
1F
100
AcDbEntity
  8
0
  6
Continuous
 62
     7
370
    25
100
AcDbSpline
210
0.0
220
0.0
230
1.0
 70
     8
 71
     3
 72
    25
 73
    21
 74
     0
 42
0.00000001
 43
0.00000001
 40
0.0
 40
0.0
 40
0.0
 40
0.0
 40
0.0299812894996495
 40
0.0873920697230692
 40
0.1449271686416229
 40
0.2025684613619311
 40
0.2603033273812406
 40
0.3181021437489262
 40
0.3759289403483534
 40
0.4337417809033619
 40
0.4914924287524625
 40
0.5491419464220118
 40
0.6066546078767426
 40
0.664006200664863
 40
0.721203530863184
 40
0.7783248726962934
 40
0.8355055469718252
 40
0.8931193692388855
 40
0.9518142198424584
 40
1.0
 40
1.0
 40
1.0
 40
1.0
 10
591.0520735848182
 20
-507.3512857006355
 30
0.0
 10
591.0462599022668
 20
-507.6658051360622
 30
0.0
 10
591.029313674824
 20
-508.5825937361786
 30
0.0
 10
590.8387245913167
 20
-510.1994307386579
 30
0.0
 10
590.4100371948751
 20
-512.1984649660882
 30
0.0
 10
589.7718501817258
 20
-514.2438094923925
 30
0.0
 10
588.9389525135281
 20
-516.2910062362756
 30
0.0
 10
587.926066991148
 20
-518.2990750868945
 30
0.0
 10
586.7534677094758
 20
-520.2268461297381
 30
0.0
 10
585.445017207114
 20
-522.0350569974662
 30
0.0
 10
584.0280669198945
 20
-523.6870834574312
 30
0.0
 10
582.5327886096552
 20
-525.1499427764486
 30
0.0
 10
580.9915548094676
 20
-526.3952137450183
 30
0.0
 10
579.4383241453307
 20
-527.3998422102193
 30
0.0
 10
577.9074148144325
 20
-528.1474587839796
 30
0.0
 10
576.4331336467781
 20
-528.6279551875772
 30
0.0
 10
575.0445111853971
 20
-528.8423036816541
 30
0.0
 10
573.7696015777171
 20
-528.7860453119832
 30
0.0
 10
572.679896637894
 20
-528.5197157066647
 30
0.0
 10
572.0856074995314
 20
-528.1525350077029
 30
0.0
 10
571.8176797602653
 20
-527.9869962350339
 30
0.0
  0
SPLINE
  5
177
330
1F
100
AcDbEntity
  8
0
  6
Continuous
 62
     7
370
    25
100
AcDbSpline
210
0.0
220
0.0
230
1.0
 70
     8
 71
     3
 72
    13
 73
     9
 74
     0
 42
0.00000001
 43
0.00000001
 40
0.0
 40
0.0
 40
0.0
 40
0.0
 40
0.1591234075516698
 40
0.3489243359101325
 40
0.533712705761979
 40
0.7138036751312975
 40
0.8914734954455494
 40
1.0
 40
1.0
 40
1.0
 40
1.0
 10
698.8438556885669
 20
-214.8618725212435
 30
0.0
 10
699.1294537279897
 20
-215.0430908191719
 30
0.0
 10
699.755710466556
 20
-215.4404646262839
 30
0.0
 10
700.5273149008249
 20
-216.3769992290051
 30
0.0
 10
701.176592254346
 20
-217.5929413211713
 30
0.0
 10
701.6172803360071
 20
-219.0337130919526
 30
0.0
 10
701.8319042050805
 20
-220.4431096508841
 30
0.0
 10
701.852903013039
 20
-221.3929567976484
 30
0.0
 10
701.8608658239822
 20
-221.7531416838333
 30
0.0
  0
SPLINE
  5
178
330
1F
100
AcDbEntity
  8
0
  6
Continuous
 62
     7
370
    25
100
AcDbSpline
210
0.0
220
0.0
230
1.0
 70
     8
 71
     3
 72
    25
 73
    21
 74
     0
 42
0.00000001
 43
0.00000001
 40
0.0
 40
0.0
 40
0.0
 40
0.0
 40
0.029981289499649
 40
0.087392069723055
 40
0.1449271686416118
 40
0.2025684613619235
 40
0.2603033273812305
 40
0.3181021437489172
 40
0.3759289403483451
 40
0.4337417809033498
 40
0.4914924287524555
 40
0.5491419464220088
 40
0.6066546078767302
 40
0.6640062006648517
 40
0.7212035308631755
 40
0.7783248726962908
 40
0.8355055469718285
 40
0.8931193692388837
 40
0.951814219842458
 40
1.0
 40
1.0
 40
1.0
 40
1.0
 10
701.8608658239821
 20
-221.7531416838333
 30
0.0
 10
701.8550521414306
 20
-222.06766111926
 30
0.0
 10
701.8381059139879
 20
-222.9844497193762
 30
0.0
 10
701.6475168304805
 20
-224.6012867218554
 30
0.0
 10
701.2188294340392
 20
-226.6003209492856
 30
0.0
 10
700.5806424208897
 20
-228.6456654755901
 30
0.0
 10
699.7477447526921
 20
-230.6928622194731
 30
0.0
 10
698.7348592303119
 20
-232.7009310700921
 30
0.0
 10
697.56225994864
 20
-234.6287021129357
 30
0.0
 10
696.2538094462781
 20
-236.4369129806638
 30
0.0
 10
694.8368591590586
 20
-238.0889394406288
 30
0.0
 10
693.3415808488193
 20
-239.5517987596463
 30
0.0
 10
691.8003470486318
 20
-240.797069728216
 30
0.0
 10
690.2471163844949
 20
-241.8016981934171
 30
0.0
 10
688.7162070535966
 20
-242.5493147671774
 30
0.0
 10
687.2419258859419
 20
-243.029811170775
 30
0.0
 10
685.853303424561
 20
-243.2441596648519
 30
0.0
 10
684.578393816881
 20
-243.1879012951811
 30
0.0
 10
683.4886888770579
 20
-242.9215716898624
 30
0.0
 10
682.8943997386953
 20
-242.5543909909006
 30
0.0
 10
682.6264719994292
 20
-242.3888522182317
 30
0.0
  0
SPLINE
  5
179
330
1F
100
AcDbEntity
  8
0
  6
Continuous
 62
     7
370
    25
100
AcDbSpline
210
0.0
220
0.0
230
1.0
 70
     8
 71
     3
 72
    13
 73
     9
 74
     0
 42
0.00000001
 43
0.00000001
 40
0.0
 40
0.0
 40
0.0
 40
0.0
 40
0.159123407551667
 40
0.3489243359101524
 40
0.5337127057620038
 40
0.7138036751313198
 40
0.8914734954455613
 40
1.0
 40
1.0
 40
1.0
 40
1.0
 10
524.0595774215487
 20
-517.5971219554701
 30
0.0
 10
524.3451754609716
 20
-517.7783402533986
 30
0.0
 10
524.9714321995378
 20
-518.1757140605107
 30
0.0
 10
525.7430366338067
 20
-519.1122486632318
 30
0.0
 10
526.3923139873278
 20
-520.328190755398
 30
0.0
 10
526.833002068989
 20
-521.7689625261794
 30
0.0
 10
527.0476259380623
 20
-523.1783590851109
 30
0.0
 10
527.0686247460208
 20
-524.1282062318751
 30
0.0
 10
527.076587556964
 20
-524.4883911180599
 30
0.0
  0
SPLINE
  5
17A
330
1F
100
AcDbEntity
  8
0
  6
Continuous
 62
     7
370
    25
100
AcDbSpline
210
0.0
220
0.0
230
1.0
 70
     8
 71
     3
 72
    25
 73
    21
 74
     0
 42
0.00000001
 43
0.00000001
 40
0.0
 40
0.0
 40
0.0
 40
0.0
 40
0.0299812894996494
 40
0.087392069723074
 40
0.1449271686416264
 40
0.2025684613619331
 40
0.2603033273812434
 40
0.318102143748931
 40
0.3759289403483601
 40
0.4337417809033696
 40
0.4914924287524729
 40
0.5491419464220246
 40
0.6066546078767474
 40
0.6640062006648699
 40
0.7212035308631929
 40
0.7783248726963089
 40
0.8355055469718485
 40
0.8931193692389041
 40
0.9518142198424828
 40
1.0
 40
1.0
 40
1.0
 40
1.0
 10
527.076587556964
 20
-524.4883911180599
 30
0.0
 10
527.0707738744125
 20
-524.8029105534866
 30
0.0
 10
527.0538276469696
 20
-525.7196991536031
 30
0.0
 10
526.8632385634622
 20
-527.3365361560825
 30
0.0
 10
526.4345511670208
 20
-529.3355703835127
 30
0.0
 10
525.7963641538713
 20
-531.3809149098172
 30
0.0
 10
524.9634664856737
 20
-533.4281116537002
 30
0.0
 10
523.9505809632936
 20
-535.4361805043192
 30
0.0
 10
522.7779816816213
 20
-537.3639515471629
 30
0.0
 10
521.4695311792594
 20
-539.1721624148909
 30
0.0
 10
520.0525808920398
 20
-540.824188874856
 30
0.0
 10
518.5573025818006
 20
-542.2870481938734
 30
0.0
 10
517.0160687816131
 20
-543.532319162443
 30
0.0
 10
515.4628381174762
 20
-544.536947627644
 30
0.0
 10
513.9319287865779
 20
-545.2845642014041
 30
0.0
 10
512.4576476189234
 20
-545.7650606050017
 30
0.0
 10
511.0690251575423
 20
-545.9794090990785
 30
0.0
 10
509.7941155498623
 20
-545.9231507294076
 30
0.0
 10
508.7044106100394
 20
-545.656821124089
 30
0.0
 10
508.1101214716769
 20
-545.2896404251271
 30
0.0
 10
507.842193732411
 20
-545.1241016524583
 30
0.0
  0
SPLINE
  5
17B
330
1F
100
AcDbEntity
  8
0
  6
Continuous
 62
     7
370
    25
100
AcDbSpline
210
0.0
220
0.0
230
1.0
 70
     8
 71
     3
 72
    13
 73
     9
 74
     0
 42
0.00000001
 43
0.00000001
 40
0.0
 40
0.0
 40
0.0
 40
0.0
 40
0.1591234075516663
 40
0.348924335910152
 40
0.5337127057620036
 40
0.7138036751313197
 40
0.8914734954455613
 40
1.0
 40
1.0
 40
1.0
 40
1.0
 10
652.0105494772658
 20
-187.8167912991537
 30
0.0
 10
652.2961475166887
 20
-187.9980095970821
 30
0.0
 10
652.9224042552551
 20
-188.3953834041941
 30
0.0
 10
653.6940086895239
 20
-189.3319180069153
 30
0.0
 10
654.343286043045
 20
-190.5478600990815
 30
0.0
 10
654.7839741247061
 20
-191.9886318698629
 30
0.0
 10
654.9985979937794
 20
-193.3980284287944
 30
0.0
 10
655.019596801738
 20
-194.3478755755586
 30
0.0
 10
655.0275596126811
 20
-194.7080604617434
 30
0.0
  0
SPLINE
  5
17C
330
1F
100
AcDbEntity
  8
0
  6
Continuous
 62
     7
370
    25
100
AcDbSpline
210
0.0
220
0.0
230
1.0
 70
     8
 71
     3
 72
    25
 73
    21
 74
     0
 42
0.00000001
 43
0.00000001
 40
0.0
 40
0.0
 40
0.0
 40
0.0
 40
0.0299812894996494
 40
0.087392069723074
 40
0.1449271686416263
 40
0.202568461361933
 40
0.2603033273812433
 40
0.3181021437489308
 40
0.3759289403483599
 40
0.4337417809033695
 40
0.4914924287524727
 40
0.5491419464220244
 40
0.6066546078767471
 40
0.6640062006648696
 40
0.7212035308631926
 40
0.7783248726963086
 40
0.8355055469718482
 40
0.8931193692389038
 40
0.9518142198424824
 40
1.0
 40
1.0
 40
1.0
 40
1.0
 10
655.0275596126811
 20
-194.7080604617434
 30
0.0
 10
655.0217459301297
 20
-195.0225798971701
 30
0.0
 10
655.0047997026869
 20
-195.9393684972866
 30
0.0
 10
654.8142106191794
 20
-197.556205499766
 30
0.0
 10
654.385523222738
 20
-199.5552397271963
 30
0.0
 10
653.7473362095885
 20
-201.6005842535006
 30
0.0
 10
652.9144385413908
 20
-203.6477809973837
 30
0.0
 10
651.9015530190107
 20
-205.6558498480026
 30
0.0
 10
650.7289537373385
 20
-207.5836208908464
 30
0.0
 10
649.4205032349765
 20
-209.3918317585744
 30
0.0
 10
648.003552947757
 20
-211.0438582185395
 30
0.0
 10
646.5082746375178
 20
-212.5067175375569
 30
0.0
 10
644.9670408373303
 20
-213.7519885061265
 30
0.0
 10
643.4138101731933
 20
-214.7566169713275
 30
0.0
 10
641.882900842295
 20
-215.5042335450876
 30
0.0
 10
640.4086196746405
 20
-215.9847299486853
 30
0.0
 10
639.0199972132594
 20
-216.199078442762
 30
0.0
 10
637.7450876055794
 20
-216.1428200730911
 30
0.0
 10
636.6553826657565
 20
-215.8764904677725
 30
0.0
 10
636.0610935273941
 20
-215.5093097688106
 30
0.0
 10
635.7931657881281
 20
-215.3437709961418
 30
0.0
  0
SPLINE
  5
17D
330
1F
100
AcDbEntity
  8
0
  6
Continuous
 62
     7
370
    25
100
AcDbSpline
210
0.0
220
0.0
230
1.0
 70
     8
 71
     3
 72
    13
 73
     9
 74
     0
 42
0.00000001
 43
0.00000001
 40
0.0
 40
0.0
 40
0.0
 40
0.0
 40
0.1591234075516637
 40
0.3489243359101377
 40
0.5337127057619729
 40
0.7138036751312945
 40
0.8914734954455337
 40
1.0
 40
1.0
 40
1.0
 40
1.0
 10
477.2262712102473
 20
-490.5520407333802
 30
0.0
 10
477.5118692496702
 20
-490.7332590313086
 30
0.0
 10
478.1381259882365
 20
-491.1306328384205
 30
0.0
 10
478.9097304225054
 20
-492.0671674411416
 30
0.0
 10
479.5590077760266
 20
-493.2831095333079
 30
0.0
 10
479.9996958576878
 20
-494.7238813040892
 30
0.0
 10
480.2143197267612
 20
-496.1332778630209
 30
0.0
 10
480.2353185347197
 20
-497.0831250097852
 30
0.0
 10
480.2432813456629
 20
-497.4433098959701
 30
0.0
  0
SPLINE
  5
17E
330
1F
100
AcDbEntity
  8
0
  6
Continuous
 62
     7
370
    25
100
AcDbSpline
210
0.0
220
0.0
230
1.0
 70
     8
 71
     3
 72
    25
 73
    21
 74
     0
 42
0.00000001
 43
0.00000001
 40
0.0
 40
0.0
 40
0.0
 40
0.0
 40
0.0299812894996489
 40
0.0873920697230547
 40
0.1449271686416112
 40
0.2025684613619227
 40
0.2603033273812295
 40
0.3181021437489157
 40
0.3759289403483435
 40
0.4337417809033481
 40
0.4914924287524514
 40
0.5491419464220022
 40
0.60665460787673
 40
0.664006200664847
 40
0.7212035308631727
 40
0.7783248726962864
 40
0.8355055469718254
 40
0.8931193692388792
 40
0.9518142198424551
 40
1.0
 40
1.0
 40
1.0
 40
1.0
 10
480.2432813456629
 20
-497.4433098959701
 30
0.0
 10
480.2374676631114
 20
-497.7578293313968
 30
0.0
 10
480.2205214356685
 20
-498.6746179315131
 30
0.0
 10
480.0299323521613
 20
-500.2914549339923
 30
0.0
 10
479.6012449557199
 20
-502.2904891614224
 30
0.0
 10
478.9630579425705
 20
-504.3358336877268
 30
0.0
 10
478.1301602743728
 20
-506.3830304316099
 30
0.0
 10
477.1172747519927
 20
-508.3910992822288
 30
0.0
 10
475.9446754703206
 20
-510.3188703250725
 30
0.0
 10
474.6362249679589
 20
-512.1270811928005
 30
0.0
 10
473.2192746807393
 20
-513.7791076527657
 30
0.0
 10
471.7239963705001
 20
-515.2419669717831
 30
0.0
 10
470.1827625703125
 20
-516.4872379403529
 30
0.0
 10
468.6295319061756
 20
-517.4918664055539
 30
0.0
 10
467.0986225752773
 20
-518.2394829793141
 30
0.0
 10
465.6243414076226
 20
-518.7199793829118
 30
0.0
 10
464.2357189462417
 20
-518.9343278769887
 30
0.0
 10
462.9608093385618
 20
-518.8780695073178
 30
0.0
 10
461.8711043987385
 20
-518.6117399019994
 30
0.0
 10
461.2768152603759
 20
-518.2445592030374
 30
0.0
 10
461.0088875211098
 20
-518.0790204303685
 30
0.0
  0
SPLINE
  5
17F
330
1F
100
AcDbEntity
  8
0
  6
Continuous
 62
     7
370
    25
100
AcDbSpline
210
0.0
220
0.0
230
1.0
 70
     8
 71
     3
 72
    13
 73
     9
 74
     0
 42
0.00000001
 43
0.00000001
 40
0.0
 40
0.0
 40
0.0
 40
0.0
 40
0.1591234075516656
 40
0.3489243359101544
 40
0.5337127057620045
 40
0.7138036751313241
 40
0.8914734954455671
 40
1.0
 40
1.0
 40
1.0
 40
1.0
 10
588.0350634494116
 20
-204.9538967165781
 30
0.0
 10
588.3206614888344
 20
-205.1351150145065
 30
0.0
 10
588.9469182274006
 20
-205.5324888216186
 30
0.0
 10
589.7185226616696
 20
-206.4690234243398
 30
0.0
 10
590.3678000151907
 20
-207.684965516506
 30
0.0
 10
590.8084880968519
 20
-209.1257372872873
 30
0.0
 10
591.0231119659251
 20
-210.5351338462189
 30
0.0
 10
591.0441107738836
 20
-211.4849809929831
 30
0.0
 10
591.0520735848266
 20
-211.8451658791679
 30
0.0
  0
SPLINE
  5
180
330
1F
100
AcDbEntity
  8
0
  6
Continuous
 62
     7
370
    25
100
AcDbSpline
210
0.0
220
0.0
230
1.0
 70
     8
 71
     3
 72
    25
 73
    21
 74
     0
 42
0.00000001
 43
0.00000001
 40
0.0
 40
0.0
 40
0.0
 40
0.0
 40
0.0299812894996494
 40
0.0873920697230689
 40
0.1449271686416225
 40
0.2025684613619305
 40
0.2603033273812398
 40
0.318102143748926
 40
0.3759289403483574
 40
0.4337417809033634
 40
0.491492428752468
 40
0.5491419464220222
 40
0.606654607876742
 40
0.6640062006648618
 40
0.7212035308631872
 40
0.7783248726963053
 40
0.8355055469718464
 40
0.8931193692389044
 40
0.951814219842479
 40
1.0
 40
1.0
 40
1.0
 40
1.0
 10
591.0520735848266
 20
-211.8451658791679
 30
0.0
 10
591.0462599022752
 20
-212.1596853145945
 30
0.0
 10
591.0293136748325
 20
-213.076473914711
 30
0.0
 10
590.8387245913251
 20
-214.6933109171903
 30
0.0
 10
590.4100371948837
 20
-216.6923451446205
 30
0.0
 10
589.7718501817342
 20
-218.737689670925
 30
0.0
 10
588.9389525135366
 20
-220.7848864148079
 30
0.0
 10
587.9260669911564
 20
-222.792955265427
 30
0.0
 10
586.7534677094842
 20
-224.7207263082707
 30
0.0
 10
585.4450172071224
 20
-226.5289371759987
 30
0.0
 10
584.0280669199027
 20
-228.1809636359638
 30
0.0
 10
582.5327886096635
 20
-229.6438229549811
 30
0.0
 10
580.991554809476
 20
-230.8890939235508
 30
0.0
 10
579.4383241453392
 20
-231.8937223887518
 30
0.0
 10
577.9074148144408
 20
-232.641338962512
 30
0.0
 10
576.4331336467861
 20
-233.1218353661097
 30
0.0
 10
575.0445111854051
 20
-233.3361838601864
 30
0.0
 10
573.7696015777252
 20
-233.2799254905156
 30
0.0
 10
572.6798966379022
 20
-233.013595885197
 30
0.0
 10
572.0856074995397
 20
-232.6464151862351
 30
0.0
 10
571.8176797602738
 20
-232.4808764135662
 30
0.0
  0
SPLINE
  5
181
330
1F
100
AcDbEntity
  8
0
  6
Continuous
 62
     7
370
    25
100
AcDbSpline
210
0.0
220
0.0
230
1.0
 70
     8
 71
     3
 72
    13
 73
     9
 74
     0
 42
0.00000001
 43
0.00000001
 40
0.0
 40
0.0
 40
0.0
 40
0.0
 40
0.1591234075516406
 40
0.3489243359101102
 40
0.5337127057619414
 40
0.7138036751312433
 40
0.8914734954454454
 40
1.0
 40
1.0
 40
1.0
 40
1.0
 10
460.0840913936968
 20
-426.5714805444688
 30
0.0
 10
460.3696894331196
 20
-426.7526988423972
 30
0.0
 10
460.995946171686
 20
-427.1500726495091
 30
0.0
 10
461.767550605955
 20
-428.0866072522301
 30
0.0
 10
462.4168279594762
 20
-429.3025493443963
 30
0.0
 10
462.8575160411376
 20
-430.7433211151774
 30
0.0
 10
463.072139910211
 20
-432.1527176741092
 30
0.0
 10
463.0931387181695
 20
-433.1025648208738
 30
0.0
 10
463.1011015291127
 20
-433.462749707059
 30
0.0
  0
SPLINE
  5
182
330
1F
100
AcDbEntity
  8
0
  6
Continuous
 62
     7
370
    25
100
AcDbSpline
210
0.0
220
0.0
230
1.0
 70
     8
 71
     3
 72
    25
 73
    21
 74
     0
 42
0.00000001
 43
0.00000001
 40
0.0
 40
0.0
 40
0.0
 40
0.0
 40
0.0299812894996494
 40
0.0873920697230557
 40
0.1449271686416126
 40
0.2025684613619244
 40
0.2603033273812316
 40
0.3181021437489134
 40
0.3759289403483416
 40
0.4337417809033474
 40
0.4914924287524493
 40
0.5491419464220011
 40
0.6066546078767253
 40
0.6640062006648466
 40
0.7212035308631713
 40
0.7783248726962869
 40
0.8355055469718261
 40
0.8931193692388828
 40
0.9518142198424548
 40
1.0
 40
1.0
 40
1.0
 40
1.0
 10
463.1011015291127
 20
-433.462749707059
 30
0.0
 10
463.0952878465612
 20
-433.7772691424856
 30
0.0
 10
463.0783416191183
 20
-434.694057742602
 30
0.0
 10
462.8877525356111
 20
-436.3108947450812
 30
0.0
 10
462.4590651391698
 20
-438.3099289725113
 30
0.0
 10
461.8208781260201
 20
-440.3552734988157
 30
0.0
 10
460.9879804578226
 20
-442.4024702426988
 30
0.0
 10
459.9750949354427
 20
-444.4105390933176
 30
0.0
 10
458.8024956537705
 20
-446.3383101361612
 30
0.0
 10
457.4940451514088
 20
-448.1465210038892
 30
0.0
 10
456.0770948641892
 20
-449.7985474638543
 30
0.0
 10
454.58181655395
 20
-451.2614067828718
 30
0.0
 10
453.0405827537626
 20
-452.5066777514415
 30
0.0
 10
451.4873520896256
 20
-453.5113062166426
 30
0.0
 10
449.9564427587273
 20
-454.2589227904029
 30
0.0
 10
448.4821615910726
 20
-454.7394191940007
 30
0.0
 10
447.0935391296916
 20
-454.9537676880776
 30
0.0
 10
445.8186295220117
 20
-454.8975093184067
 30
0.0
 10
444.7289245821885
 20
-454.6311797130882
 30
0.0
 10
444.1346354438258
 20
-454.2639990141263
 30
0.0
 10
443.8667077045598
 20
-454.0984602414575
 30
0.0
  0
SPLINE
  5
183
330
1F
100
AcDbEntity
  8
0
  6
Continuous
 62
     7
370
    25
100
AcDbSpline
210
0.0
220
0.0
230
1.0
 70
     8
 71
     3
 72
    13
 73
     9
 74
     0
 42
0.00000001
 43
0.00000001
 40
0.0
 40
0.0
 40
0.0
 40
0.0
 40
0.159123407551682
 40
0.3489243359101435
 40
0.5337127057619856
 40
0.7138036751313008
 40
0.8914734954455412
 40
1.0
 40
1.0
 40
1.0
 40
1.0
 10
524.0595774215558
 20
-261.681315216311
 30
0.0
 10
524.3451754609787
 20
-261.8625335142394
 30
0.0
 10
524.971432199545
 20
-262.2599073213513
 30
0.0
 10
525.7430366338139
 20
-263.1964419240725
 30
0.0
 10
526.3923139873351
 20
-264.4123840162387
 30
0.0
 10
526.8330020689962
 20
-265.8531557870199
 30
0.0
 10
527.0476259380696
 20
-267.2625523459515
 30
0.0
 10
527.0686247460281
 20
-268.2123994927159
 30
0.0
 10
527.0765875569712
 20
-268.5725843789008
 30
0.0
  0
SPLINE
  5
184
330
1F
100
AcDbEntity
  8
0
  6
Continuous
 62
     7
370
    25
100
AcDbSpline
210
0.0
220
0.0
230
1.0
 70
     8
 71
     3
 72
    25
 73
    21
 74
     0
 42
0.00000001
 43
0.00000001
 40
0.0
 40
0.0
 40
0.0
 40
0.0
 40
0.0299812894996494
 40
0.0873920697230645
 40
0.1449271686416203
 40
0.2025684613619281
 40
0.2603033273812371
 40
0.3181021437489224
 40
0.3759289403483484
 40
0.4337417809033544
 40
0.4914924287524526
 40
0.5491419464220099
 40
0.6066546078767381
 40
0.6640062006648564
 40
0.7212035308631848
 40
0.7783248726962965
 40
0.8355055469718305
 40
0.8931193692388878
 40
0.951814219842457
 40
1.0
 40
1.0
 40
1.0
 40
1.0
 10
527.0765875569712
 20
-268.5725843789008
 30
0.0
 10
527.0707738744197
 20
-268.8871038143275
 30
0.0
 10
527.053827646977
 20
-269.8038924144438
 30
0.0
 10
526.8632385634696
 20
-271.4207294169232
 30
0.0
 10
526.4345511670282
 20
-273.4197636443534
 30
0.0
 10
525.7963641538787
 20
-275.4651081706578
 30
0.0
 10
524.963466485681
 20
-277.5123049145408
 30
0.0
 10
523.9505809633009
 20
-279.5203737651597
 30
0.0
 10
522.7779816816288
 20
-281.4481448080033
 30
0.0
 10
521.469531179267
 20
-283.2563556757313
 30
0.0
 10
520.0525808920476
 20
-284.9083821356963
 30
0.0
 10
518.5573025818084
 20
-286.3712414547139
 30
0.0
 10
517.0160687816207
 20
-287.6165124232836
 30
0.0
 10
515.4628381174837
 20
-288.6211408884847
 30
0.0
 10
513.9319287865854
 20
-289.3687574622449
 30
0.0
 10
512.4576476189309
 20
-289.8492538658426
 30
0.0
 10
511.0690251575498
 20
-290.0636023599193
 30
0.0
 10
509.7941155498701
 20
-290.0073439902485
 30
0.0
 10
508.7044106100469
 20
-289.7410143849299
 30
0.0
 10
508.1101214716844
 20
-289.3738336859681
 30
0.0
 10
507.8421937324183
 20
-289.2082949132992
 30
0.0
  0
SPLINE
  5
185
330
1F
100
AcDbEntity
  8
0
  6
Continuous
 62
     7
370
    25
100
AcDbSpline
210
0.0
220
0.0
230
1.0
 70
     8
 71
     3
 72
    13
 73
     9
 74
     0
 42
0.00000001
 43
0.00000001
 40
0.0
 40
0.0
 40
0.0
 40
0.0
 40
0.1591234075516672
 40
0.3489243359101677
 40
0.5337127057620169
 40
0.7138036751313385
 40
0.8914734954455786
 40
0.9999999999999999
 40
0.9999999999999999
 40
0.9999999999999999
 40
0.9999999999999999
 10
477.226271210252
 20
-342.7989808226467
 30
0.0
 10
477.5118692496749
 20
-342.9801991205752
 30
0.0
 10
478.1381259882411
 20
-343.3775729276872
 30
0.0
 10
478.9097304225099
 20
-344.3141075304084
 30
0.0
 10
479.5590077760311
 20
-345.5300496225748
 30
0.0
 10
479.9996958576921
 20
-346.9708213933561
 30
0.0
 10
480.2143197267654
 20
-348.3802179522875
 30
0.0
 10
480.2353185347239
 20
-349.3300650990516
 30
0.0
 10
480.243281345667
 20
-349.6902499852363
 30
0.0
  0
SPLINE
  5
186
330
1F
100
AcDbEntity
  8
0
  6
Continuous
 62
     7
370
    25
100
AcDbSpline
210
0.0
220
0.0
230
1.0
 70
     8
 71
     3
 72
    25
 73
    21
 74
     0
 42
0.00000001
 43
0.00000001
 40
0.0
 40
0.0
 40
0.0
 40
0.0
 40
0.029981289499649
 40
0.0873920697230734
 40
0.1449271686416337
 40
0.2025684613619321
 40
0.2603033273812465
 40
0.3181021437489347
 40
0.3759289403483566
 40
0.4337417809033621
 40
0.4914924287524606
 40
0.5491419464220162
 40
0.6066546078767445
 40
0.6640062006648616
 40
0.7212035308631853
 40
0.7783248726963027
 40
0.8355055469718393
 40
0.8931193692388961
 40
0.9518142198424698
 40
0.9999999999999999
 40
0.9999999999999999
 40
0.9999999999999999
 40
0.9999999999999999
 10
480.243281345667
 20
-349.6902499852363
 30
0.0
 10
480.2374676631155
 20
-350.0047694206631
 30
0.0
 10
480.2205214356727
 20
-350.9215580207795
 30
0.0
 10
480.0299323521654
 20
-352.5383950232589
 30
0.0
 10
479.6012449557239
 20
-354.5374292506893
 30
0.0
 10
478.9630579425744
 20
-356.5827737769937
 30
0.0
 10
478.1301602743768
 20
-358.6299705208767
 30
0.0
 10
477.1172747519966
 20
-360.6380393714956
 30
0.0
 10
475.9446754703245
 20
-362.5658104143393
 30
0.0
 10
474.6362249679627
 20
-364.3740212820671
 30
0.0
 10
473.2192746807431
 20
-366.0260477420322
 30
0.0
 10
471.7239963705039
 20
-367.4889070610496
 30
0.0
 10
470.1827625703163
 20
-368.7341780296193
 30
0.0
 10
468.6295319061794
 20
-369.7388064948203
 30
0.0
 10
467.0986225752811
 20
-370.4864230685806
 30
0.0
 10
465.6243414076265
 20
-370.9669194721781
 30
0.0
 10
464.2357189462455
 20
-371.1812679662549
 30
0.0
 10
462.9608093385655
 20
-371.1250095965841
 30
0.0
 10
461.8711043987425
 20
-370.8586799912655
 30
0.0
 10
461.27681526038
 20
-370.4914992923036
 30
0.0
 10
461.008887521114
 20
-370.3259605196347
 30
0.0
  0
LWPOLYLINE
  5
187
330
1F
100
AcDbEntity
  8
0
  6
Continuous
 62
     7
370
    25
100
AcDbPolyline
 90
      153
 70
   128
 43
0.0
 10
724.2810416667
 20
-282.4476592226
 10
724.1572134591
 20
-275.6017204803
 10
723.7859403947
 20
-268.9104469148
 10
723.1678567873
 20
-262.3852704548
 10
722.3040186224
 20
-256.0373392548
 10
721.1959017529
 20
-249.8774986487
 10
719.8453993781
 20
-243.916272621
 10
718.2548188084
 20
-238.1638458262
 10
716.4268775243
 20
-232.6300461891
 10
714.3646985325
 20
-227.3243281135
 10
712.0718050315
 20
-222.2557563298
 10
709.5521143913
 20
-217.4329904078
 10
706.809931461
 20
-212.8642699622
 10
703.8499412142
 20
-208.5574005752
 10
700.6772007446
 20
-204.519740461
 10
697.297130626
 20
-200.7581878941
 10
693.7155056516
 20
-197.279169424
 10
689.9384449676
 20
-194.0886288953
 10
685.9724016187
 20
-191.1920172931
 10
681.8241515235
 20
-188.5942834297
 10
677.5007818977
 20
-186.2998654898
 10
673.0096791457
 20
-184.312683448
 10
668.3585162414
 20
-182.6361323714
 10
663.5552396185
 20
-181.2730766195
 10
658.6080555945
 20
-180.2258449501
 10
653.5254163503
 20
-179.496226541
 10
648.3160054899
 20
-179.085467933
 10
642.9887232043
 20
-178.9942709002
 10
637.5526710659
 20
-179.2227912514
 10
632.0171364787
 20
-179.7706385632
 10
626.3915768105
 20
-180.6368768478
 10
620.6856032358
 20
-181.8200261516
 10
614.9089643147
 20
-183.3180650838
 10
609.0715293378
 20
-185.1284342701
 10
603.183271465
 20
-187.248040725
 10
597.2542506859
 20
-189.6732631365
 10
591.2945966332
 20
-192.3999580528
 10
585.3144912758
 20
-195.4234669613
 10
579.3241515235
 20
-198.7386242479
 10
573.3338117711
 20
-202.3397660218
 10
567.3537064137
 20
-206.2207397929
 10
561.394052361
 20
-210.3749149824
 10
555.465031582
 20
-214.7951942518
 10
549.5767737091
 20
-219.4740256281
 10
543.7393387322
 20
-224.4034154063
 10
537.9626998111
 20
-229.5749418067
 10
532.2567262364
 20
-234.9797693633
 10
526.6311665683
 20
-240.6086640187
 10
521.095631981
 20
-246.452008901
 10
515.6595798426
 20
-252.4998207533
 10
510.332297557
 20
-258.7417669906
 10
505.1228866966
 20
-265.1671833525
 10
500.0402474525
 20
-271.7650921228
 10
495.0930634285
 20
-278.5242208852
 10
490.2897868055
 20
-285.4330217814
 10
485.6386239012
 20
-292.4796912411
 10
481.1475211493
 20
-299.6521901478
 10
476.8241515235
 20
-306.9382644072
 10
472.6759014283
 20
-314.3254658839
 10
468.7098580794
 20
-321.8011736679
 10
464.9327973953
 20
-329.352615638
 10
461.3511724209
 20
-336.9668902822
 10
457.9711023024
 20
-344.6309887399
 10
454.7983618328
 20
-352.3318170276
 10
451.838371586
 20
-360.0562184093
 10
449.0961886557
 20
-367.7909958748
 10
446.5764980154
 20
-375.5229346866
 10
444.2836045144
 20
-383.2388249568
 10
442.2214255227
 20
-390.9254842165
 10
440.3934842385
 20
-398.5697799371
 10
438.8029036689
 20
-406.1586519678
 10
437.452401294
 20
-413.6791348478
 10
436.3442844246
 20
-421.1183799584
 10
435.4804462596
 20
-428.4636774741
 10
434.8623626522
 20
-435.7024780774
 10
434.4910895878
 20
-442.8224143987
 10
434.3672613802
 20
-449.8113221463
 10
434.4910895878
 20
-456.6572608886
 10
434.8623626522
 20
-463.3485344541
 10
435.4804462596
 20
-469.8737109141
 10
436.3442844246
 20
-476.2216421142
 10
437.452401294
 20
-482.3814827202
 10
438.8029036689
 20
-488.342708748
 10
440.3934842385
 20
-494.0951355427
 10
442.2214255227
 20
-499.6289351798
 10
444.2836045144
 20
-504.9346532554
 10
446.5764980154
 20
-510.0032250391
 10
449.0961886557
 20
-514.8259909611
 10
451.838371586
 20
-519.3947114067
 10
454.7983618328
 20
-523.7015807937
 10
457.9711023024
 20
-527.7392409079
 10
461.3511724209
 20
-531.5007934748
 10
464.9327973953
 20
-534.979811945
 10
468.7098580794
 20
-538.1703524736
 10
472.6759014283
 20
-541.0669640758
 10
476.8241515235
 20
-543.6646979392
 10
481.1475211493
 20
-545.9591158791
 10
485.6386239012
 20
-547.946297921
 10
490.2897868055
 20
-549.6228489976
 10
495.0930634285
 20
-550.9859047495
 10
500.0402474525
 20
-552.0331364189
 10
505.1228866966
 20
-552.762754828
 10
510.332297557
 20
-553.173513436
 10
515.6595798426
 20
-553.2647104687
 10
521.095631981
 20
-553.0361901176
 10
526.6311665683
 20
-552.4883428057
 10
532.2567262364
 20
-551.6221045211
 10
537.9626998111
 20
-550.4389552174
 10
543.7393387322
 20
-548.9409162852
 10
549.5767737091
 20
-547.1305470989
 10
555.465031582
 20
-545.010940644
 10
561.394052361
 20
-542.5857182325
 10
567.3537064137
 20
-539.8590233162
 10
573.3338117711
 20
-536.8355144076
 10
579.3241515235
 20
-533.5203571211
 10
585.3144912758
 20
-529.9192153471
 10
591.2945966332
 20
-526.0382415761
 10
597.2542506859
 20
-521.8840663866
 10
603.183271465
 20
-517.4637871172
 10
609.0715293378
 20
-512.7849557409
 10
614.9089643147
 20
-507.8555659627
 10
620.6856032358
 20
-502.6840395622
 10
626.3915768105
 20
-497.2792120057
 10
632.0171364787
 20
-491.6503173502
 10
637.5526710659
 20
-485.806972468
 10
642.9887232043
 20
-479.7591606156
 10
648.3160054899
 20
-473.5172143783
 10
653.5254163503
 20
-467.0917980165
 10
658.6080555945
 20
-460.4938892461
 10
663.5552396185
 20
-453.7347604838
 10
668.3585162414
 20
-446.8259595875
 10
673.0096791457
 20
-439.7792901278
 10
677.5007818977
 20
-432.6067912212
 10
681.8241515235
 20
-425.3207169617
 10
685.9724016187
 20
-417.933515485
 10
689.9384449676
 20
-410.457807701
 10
693.7155056516
 20
-402.9063657309
 10
697.297130626
 20
-395.2920910868
 10
700.6772007446
 20
-387.627992629
 10
703.8499412142
 20
-379.9271643413
 10
706.809931461
 20
-372.2027629596
 10
709.5521143913
 20
-364.4679854941
 10
712.0718050315
 20
-356.7360466824
 10
714.3646985325
 20
-349.0201564121
 10
716.4268775243
 20
-341.3334971525
 10
718.2548188084
 20
-333.6892014318
 10
719.8453993781
 20
-326.1003294012
 10
721.1959017529
 20
-318.5798465211
 10
722.3040186224
 20
-311.1406014105
 10
723.1678567873
 20
-303.7953038948
 10
723.7859403947
 20
-296.5565032916
 10
724.1572134591
 20
-289.4365669703
 10
724.2810416667
 20
-282.4476592226
  0
ARC
  5
188
330
1F
100
AcDbEntity
  8
0
  6
Continuous
 62
     7
370
    25
100
AcDbCircle
 10
512.8685953911
 20
-482.8647290096
 30
0.0
 40
71.61435142904052
100
AcDbArc
 50
214.0873768292
 51
265.4370362675
  0
ARC
  5
189
330
1F
100
AcDbEntity
  8
0
  6
Continuous
 62
     7
370
    25
100
AcDbCircle
 10
647.2340954066
 20
-250.1600485301
 30
0.0
 40
71.5521497816602
100
AcDbArc
 50
34.1127229728
 51
84.7471927939
  0
ARC
  5
18A
330
1F
100
AcDbEntity
  8
0
  6
Continuous
 62
     7
370
    25
100
AcDbCircle
 10
667.6155080317
 20
-263.0510766566
 30
0.0
 40
72.58796656292107
100
AcDbArc
 50
35.4885233232
 51
59.7018751438
  0
ARC
  5
18B
330
1F
100
AcDbEntity
  8
0
  6
Continuous
 62
     7
370
    25
100
AcDbCircle
 10
534.5667746922
 20
-493.0958107891
 30
0.0
 40
73.66649432907947
100
AcDbArc
 50
240.4652990046
 51
265.7275521821
  0
LWPOLYLINE
  5
18C
330
1F
100
AcDbEntity
  8
0
  6
Continuous
 62
     7
370
    25
100
AcDbPolyline
 90
       44
 70
   128
 43
0.0
 10
480.5361745645
 20
-349.2820459293
 10
480.4080731606
 20
-351.3771153228
 10
480.026499208
 20
-353.5754346823
 10
479.399585293
 20
-355.8301506471
 10
478.5406929972
 20
-358.0932078612
 10
477.4681281189
 20
-360.3163731888
 10
476.2047505162
 20
-362.4522637209
 10
474.7774868893
 20
-364.455356659
 10
473.2167568845
 20
-366.2829595547
 10
471.5558247522
 20
-367.8961202254
 10
469.8300903772
 20
-369.2604569519
 10
468.0763347915
 20
-370.3468912658
 10
466.3319362506
 20
-371.1322677058
 10
464.634073581
 20
-371.5998473366
 10
463.0189337776
 20
-371.7396645102
 10
461.5209407413
 20
-371.5487392663
 10
460.1720215928
 20
-371.0311408449
 10
459.000926202
 20
-370.1979009578
 10
458.0326144338
 20
-369.0667786666
 10
457.2877241725
 20
-367.661881879
 10
456.7821314608
 20
-366.0131535311
 10
456.5266121294
 20
-364.1557334051
 10
456.5266121294
 20
-362.1292091862
 10
456.7821314608
 20
-359.9767727198
 10
457.2877241725
 20
-357.7442994522
 10
458.0326144338
 20
-355.4793706753
 10
459.000926202
 20
-353.2302594136
 10
460.1720215928
 20
-351.0449015689
 10
461.5209407413
 20
-348.9698742495
 10
463.0189337776
 20
-347.0494030603
 10
464.634073581
 20
-345.3244195103
 10
466.3319362506
 20
-343.8316886291
 10
468.0763347915
 20
-342.6030253838
 10
469.8300903772
 20
-341.6646165985
 10
471.5558247522
 20
-341.036462827
 10
473.2167568845
 20
-340.7319520765
 10
474.7774868893
 20
-340.7575744649
 10
476.2047505162
 20
-341.1127838956
 10
477.4681281189
 20
-341.7900096961
 10
478.5406929972
 20
-342.7748179744
 10
479.399585293
 20
-344.0462192518
 10
480.026499208
 20
-345.5771158173
 10
480.4080731606
 20
-347.3348792685
 10
480.5361745645
 20
-349.2820459293
  0
LWPOLYLINE
  5
18D
330
1F
100
AcDbEntity
  8
0
  6
Continuous
 62
     7
370
    25
100
AcDbPolyline
 90
       44
 70
   128
 43
0.0
 10
480.5361745645
 20
-497.0351058401
 10
480.4080731606
 20
-499.1301752336
 10
480.026499208
 20
-501.328494593
 10
479.399585293
 20
-503.5832105579
 10
478.5406929972
 20
-505.8462677719
 10
477.4681281189
 20
-508.0694330995
 10
476.2047505162
 20
-510.2053236316
 10
474.7774868893
 20
-512.2084165697
 10
473.2167568845
 20
-514.0360194654
 10
471.5558247522
 20
-515.6491801361
 10
469.8300903772
 20
-517.0135168627
 10
468.0763347915
 20
-518.0999511766
 10
466.3319362506
 20
-518.8853276166
 10
464.634073581
 20
-519.3529072474
 10
463.0189337776
 20
-519.492724421
 10
461.5209407413
 20
-519.301799177
 10
460.1720215928
 20
-518.7842007556
 10
459.000926202
 20
-517.9509608685
 10
458.0326144338
 20
-516.8198385773
 10
457.2877241725
 20
-515.4149417898
 10
456.7821314608
 20
-513.7662134418
 10
456.5266121294
 20
-511.9087933158
 10
456.5266121294
 20
-509.8822690969
 10
456.7821314608
 20
-507.7298326305
 10
457.2877241725
 20
-505.497359363
 10
458.0326144338
 20
-503.232430586
 10
459.000926202
 20
-500.9833193243
 10
460.1720215928
 20
-498.7979614796
 10
461.5209407413
 20
-496.7229341603
 10
463.0189337776
 20
-494.802462971
 10
464.634073581
 20
-493.077479421
 10
466.3319362506
 20
-491.5847485398
 10
468.0763347915
 20
-490.3560852946
 10
469.8300903772
 20
-489.4176765092
 10
471.5558247522
 20
-488.7895227377
 10
473.2167568845
 20
-488.4850119872
 10
474.7774868893
 20
-488.5106343757
 10
476.2047505162
 20
-488.8658438063
 10
477.4681281189
 20
-489.5430696069
 10
478.5406929972
 20
-490.5278778852
 10
479.399585293
 20
-491.7992791625
 10
480.026499208
 20
-493.330175728
 10
480.4080731606
 20
-495.0879391793
 10
480.5361745645
 20
-497.0351058401
  0
LWPOLYLINE
  5
18E
330
1F
100
AcDbEntity
  8
0
  6
Continuous
 62
     7
370
    25
100
AcDbPolyline
 90
       44
 70
   128
 43
0.0
 10
591.3449668036
 20
-506.9430816447
 10
591.2168653998
 20
-509.0381510382
 10
590.8352914471
 20
-511.2364703977
 10
590.2083775321
 20
-513.4911863625
 10
589.3494852364
 20
-515.7542435765
 10
588.276920358
 20
-517.9774089042
 10
587.0135427553
 20
-520.1132994363
 10
585.5862791285
 20
-522.1163923744
 10
584.0255491237
 20
-523.9439952701
 10
582.3646169914
 20
-525.5571559408
 10
580.6388826163
 20
-526.9214926673
 10
578.8851270306
 20
-528.0079269812
 10
577.1407284898
 20
-528.7933034212
 10
575.4428658201
 20
-529.260883052
 10
573.8277260167
 20
-529.4007002256
 10
572.3297329804
 20
-529.2097749817
 10
570.980813832
 20
-528.6921765603
 10
569.8097184411
 20
-527.8589366732
 10
568.841406673
 20
-526.727814382
 10
568.0965164117
 20
-525.3229175944
 10
567.5909236999
 20
-523.6741892465
 10
567.3354043686
 20
-521.8167691205
 10
567.3354043686
 20
-519.7902449016
 10
567.5909236999
 20
-517.6378084352
 10
568.0965164117
 20
-515.4053351676
 10
568.841406673
 20
-513.1404063907
 10
569.8097184411
 20
-510.891295129
 10
570.980813832
 20
-508.7059372843
 10
572.3297329804
 20
-506.6309099649
 10
573.8277260167
 20
-504.7104387757
 10
575.4428658201
 20
-502.9854552257
 10
577.1407284898
 20
-501.4927243445
 10
578.8851270306
 20
-500.2640610992
 10
580.6388826163
 20
-499.3256523139
 10
582.3646169914
 20
-498.6974985424
 10
584.0255491237
 20
-498.3929877919
 10
585.5862791285
 20
-498.4186101803
 10
587.0135427553
 20
-498.773819611
 10
588.276920358
 20
-499.4510454115
 10
589.3494852364
 20
-500.4358536898
 10
590.2083775321
 20
-501.7072549672
 10
590.8352914471
 20
-503.2381515327
 10
591.2168653998
 20
-504.9959149839
 10
591.3449668036
 20
-506.9430816447
  0
LWPOLYLINE
  5
18F
330
1F
100
AcDbEntity
  8
0
  6
Continuous
 62
     7
370
    25
100
AcDbPolyline
 90
       44
 70
   128
 43
0.0
 10
719.2959388593
 20
-285.3254978168
 10
719.1678374555
 20
-287.4205672103
 10
718.7862635029
 20
-289.6188865698
 10
718.1593495878
 20
-291.8736025346
 10
717.3004572921
 20
-294.1366597487
 10
716.2278924137
 20
-296.3598250763
 10
714.964514811
 20
-298.4957156084
 10
713.5372511842
 20
-300.4988085465
 10
711.9765211794
 20
-302.3264114422
 10
710.3155890471
 20
-303.9395721129
 10
708.5898546721
 20
-305.3039088395
 10
706.8360990863
 20
-306.3903431533
 10
705.0917005455
 20
-307.1757195933
 10
703.3938378758
 20
-307.6432992241
 10
701.7786980725
 20
-307.7831163977
 10
700.2807050361
 20
-307.5921911538
 10
698.9317858877
 20
-307.0745927324
 10
697.7606904969
 20
-306.2413528453
 10
696.7923787287
 20
-305.1102305541
 10
696.0474884674
 20
-303.7053337665
 10
695.5418957556
 20
-302.0566054186
 10
695.2863764243
 20
-300.1991852926
 10
695.2863764243
 20
-298.1726610737
 10
695.5418957556
 20
-296.0202246073
 10
696.0474884674
 20
-293.7877513397
 10
696.7923787287
 20
-291.5228225628
 10
697.7606904969
 20
-289.2737113011
 10
698.9317858877
 20
-287.0883534564
 10
700.2807050361
 20
-285.013326137
 10
701.7786980725
 20
-283.0928549478
 10
703.3938378758
 20
-281.3678713978
 10
705.0917005455
 20
-279.8751405166
 10
706.8360990863
 20
-278.6464772714
 10
708.5898546721
 20
-277.708068486
 10
710.3155890471
 20
-277.0799147145
 10
711.9765211794
 20
-276.775403964
 10
713.5372511842
 20
-276.8010263524
 10
714.964514811
 20
-277.1562357831
 10
716.2278924137
 20
-277.8334615837
 10
717.3004572921
 20
-278.8182698619
 10
718.1593495878
 20
-280.0896711393
 10
718.7862635029
 20
-281.6205677048
 10
719.1678374555
 20
-283.3783311561
 10
719.2959388593
 20
-285.3254978168
  0
LWPOLYLINE
  5
190
330
1F
100
AcDbEntity
  8
0
  6
Continuous
 62
     7
370
    25
100
AcDbPolyline
 90
       44
 70
   128
 43
0.0
 10
655.3204528315
 20
-194.2998564058
 10
655.1923514276
 20
-196.3949257993
 10
654.810777475
 20
-198.5932451588
 10
654.18386356
 20
-200.8479611236
 10
653.3249712642
 20
-203.1110183377
 10
652.2524063859
 20
-205.3341836653
 10
650.9890287832
 20
-207.4700741974
 10
649.5617651563
 20
-209.4731671355
 10
648.0010351515
 20
-211.3007700312
 10
646.3401030192
 20
-212.9139307019
 10
644.6143686442
 20
-214.2782674284
 10
642.8606130585
 20
-215.3647017423
 10
641.1162145176
 20
-216.1500781823
 10
639.418351848
 20
-216.6176578131
 10
637.8032120446
 20
-216.7574749867
 10
636.3052190083
 20
-216.5665497428
 10
634.9562998598
 20
-216.0489513214
 10
633.785204469
 20
-215.2157114343
 10
632.8168927008
 20
-214.0845891431
 10
632.0720024395
 20
-212.6796923555
 10
631.5664097278
 20
-211.0309640076
 10
631.3108903965
 20
-209.1735438816
 10
631.3108903965
 20
-207.1470196627
 10
631.5664097278
 20
-204.9945831963
 10
632.0720024395
 20
-202.7621099287
 10
632.8168927008
 20
-200.4971811518
 10
633.785204469
 20
-198.2480698901
 10
634.9562998598
 20
-196.0627120454
 10
636.3052190083
 20
-193.987684726
 10
637.8032120446
 20
-192.0672135368
 10
639.418351848
 20
-190.3422299868
 10
641.1162145176
 20
-188.8494991056
 10
642.8606130585
 20
-187.6208358604
 10
644.6143686442
 20
-186.682427075
 10
646.3401030192
 20
-186.0542733035
 10
648.0010351515
 20
-185.749762553
 10
649.5617651563
 20
-185.7753849414
 10
650.9890287832
 20
-186.1305943721
 10
652.2524063859
 20
-186.8078201726
 10
653.3249712642
 20
-187.7926284509
 10
654.18386356
 20
-189.0640297283
 10
654.810777475
 20
-190.5949262938
 10
655.1923514276
 20
-192.3526897451
 10
655.3204528315
 20
-194.2998564058
  0
LWPOLYLINE
  5
191
330
1F
100
AcDbEntity
  8
0
  6
Continuous
 62
     7
370
    25
100
AcDbPolyline
 90
       44
 70
   128
 43
0.0
 10
591.3449668036
 20
-211.4369618233
 10
591.2168653998
 20
-213.5320312168
 10
590.8352914471
 20
-215.7303505762
 10
590.2083775321
 20
-217.9850665411
 10
589.3494852364
 20
-220.2481237551
 10
588.276920358
 20
-222.4712890827
 10
587.0135427553
 20
-224.6071796148
 10
585.5862791285
 20
-226.6102725529
 10
584.0255491237
 20
-228.4378754486
 10
582.3646169914
 20
-230.0510361193
 10
580.6388826163
 20
-231.4153728459
 10
578.8851270306
 20
-232.5018071598
 10
577.1407284898
 20
-233.2871835997
 10
575.4428658201
 20
-233.7547632306
 10
573.8277260167
 20
-233.8945804042
 10
572.3297329804
 20
-233.7036551602
 10
570.980813832
 20
-233.1860567388
 10
569.8097184412
 20
-232.3528168517
 10
568.841406673
 20
-231.2216945605
 10
568.0965164117
 20
-229.816797773
 10
567.5909236999
 20
-228.168069425
 10
567.3354043686
 20
-226.310649299
 10
567.3354043686
 20
-224.2841250801
 10
567.5909236999
 20
-222.1316886137
 10
568.0965164117
 20
-219.8992153461
 10
568.841406673
 20
-217.6342865692
 10
569.8097184412
 20
-215.3851753075
 10
570.980813832
 20
-213.1998174628
 10
572.3297329804
 20
-211.1247901435
 10
573.8277260167
 20
-209.2043189542
 10
575.4428658201
 20
-207.4793354042
 10
577.1407284898
 20
-205.986604523
 10
578.8851270306
 20
-204.7579412778
 10
580.6388826163
 20
-203.8195324924
 10
582.3646169914
 20
-203.1913787209
 10
584.0255491237
 20
-202.8868679704
 10
585.5862791285
 20
-202.9124903588
 10
587.0135427553
 20
-203.2676997895
 10
588.276920358
 20
-203.9449255901
 10
589.3494852364
 20
-204.9297338684
 10
590.2083775321
 20
-206.2011351457
 10
590.8352914471
 20
-207.7320317112
 10
591.2168653998
 20
-209.4897951625
 10
591.3449668036
 20
-211.4369618233
  0
LWPOLYLINE
  5
192
330
1F
100
AcDbEntity
  8
0
  6
Continuous
 62
     7
370
    25
100
AcDbPolyline
 90
      128
 70
   128
 43
0.0
 10
681.8546347955
 20
-306.9399025773
 10
681.7291801586
 20
-312.867568187
 10
681.3531232565
 20
-318.9255746462
 10
680.7273843635
 20
-325.099096998
 10
679.8534947673
 20
-331.3730275987
 10
678.7335930224
 20
-337.7320130887
 10
677.370419716
 20
-344.160491965
 10
675.7673107615
 20
-350.6427326626
 10
673.9281892353
 20
-357.1628720521
 10
671.8575557758
 20
-363.7049542601
 10
669.5604775702
 20
-370.2529697149
 10
667.0425759537
 20
-376.7908943255
 10
664.3100126535
 20
-383.302728695
 10
661.3694747099
 20
-389.7725372732
 10
658.2281581121
 20
-396.1844873546
 10
654.893750188
 20
-402.5228878227
 10
651.3744107927
 20
-408.7722275495
 10
647.6787523395
 20
-414.9172133536
 10
643.8158187237
 20
-420.9428074248
 10
639.7950631913
 20
-426.8342641248
 10
635.6263252049
 20
-432.5771660718
 10
631.3198063648
 20
-438.1574594224
 10
626.8860454444
 20
-443.5614882637
 10
622.3358925995
 20
-448.7760280315
 10
617.6804828167
 20
-453.7883178732
 10
612.9312086637
 20
-458.5860918757
 10
608.0996924104
 20
-463.1576090819
 10
603.1977575865
 20
-467.4916822233
 10
598.2374000481
 20
-471.5777050966
 10
593.2307586212
 20
-475.4056785191
 10
588.1900853964
 20
-478.9662347984
 10
583.1277157457
 20
-482.2506606567
 10
578.056038136
 20
-485.2509185534
 10
572.9874638123
 20
-487.9596663548
 10
567.9343964252
 20
-490.370275301
 10
562.9092016775
 20
-492.4768462281
 10
557.9241770627
 20
-494.2742240039
 10
552.9915217714
 20
-495.7580101439
 10
548.1233068378
 20
-496.9245735748
 10
543.3314455994
 20
-497.7710595203
 10
538.6276645438
 20
-498.2953964875
 10
534.0234746115
 20
-498.4963013359
 10
529.5301430266
 20
-498.3732824178
 10
525.1586657246
 20
-497.926640781
 10
520.9197404429
 20
-497.1574694325
 10
516.823740542
 20
-496.0676506634
 10
512.8806896201
 20
-494.659851443
 10
509.1002369835
 20
-492.9375168917
 10
505.4916340333
 20
-490.9048618509
 10
502.0637116257
 20
-488.5668605681
 10
498.8248584611
 20
-485.9292345242
 10
495.783000556
 20
-482.998438432
 10
492.9455818464
 20
-479.7816444408
 10
490.3195459715
 20
-476.2867245845
 10
487.9113192809
 20
-472.5222315177
 10
485.7267951091
 20
-468.4973775856
 10
483.7713193526
 20
-464.2220122804
 10
482.0496773884
 20
-459.7065981373
 10
480.5660823628
 20
-454.9621851314
 10
479.3241648815
 20
-450.0003836364
 10
478.3269641246
 20
-444.833336012
 10
477.5769204096
 20
-439.4736868895
 10
477.075869219
 20
-433.9345522285
 10
476.8250367091
 20
-428.2294872197
 10
476.8250367091
 20
-422.3724531132
 10
477.075869219
 20
-416.3777830529
 10
477.5769204096
 20
-410.260147001
 10
478.3269641246
 20
-404.0345158381
 10
479.3241648815
 20
-397.7161247268
 10
480.5660823628
 20
-391.320435829
 10
482.0496773884
 20
-384.8631004672
 10
483.7713193526
 20
-378.359920823
 10
485.7267951091
 20
-371.8268112668
 10
487.9113192809
 20
-365.2797594124
 10
490.3195459715
 20
-358.7347869928
 10
492.9455818464
 20
-352.2079106523
 10
495.783000556
 20
-345.7151027509
 10
498.8248584611
 20
-339.2722522778
 10
502.0637116257
 20
-332.8951259675
 10
505.4916340333
 20
-326.5993297168
 10
509.1002369835
 20
-320.4002703941
 10
512.8806896201
 20
-314.3131181364
 10
516.823740542
 20
-308.3527692253
 10
520.9197404429
 20
-302.5338096333
 10
525.1586657246
 20
-296.8704793296
 10
529.5301430266
 20
-291.3766374326
 10
534.0234746115
 20
-286.065728294
 10
538.6276645438
 20
-280.9507485983
 10
543.3314455994
 20
-276.044215558
 10
548.1233068378
 20
-271.3581362816
 10
552.9915217714
 20
-266.9039783905
 10
557.9241770627
 20
-262.6926419553
 10
562.9092016775
 20
-258.7344328221
 10
567.9343964252
 20
-255.0390373917
 10
572.9874638123
 20
-251.6154989162
 10
578.056038136
 20
-248.4721953678
 10
583.1277157457
 20
-245.616818937
 10
588.1900853964
 20
-243.0563572085
 10
593.2307586212
 20
-240.7970760612
 10
598.2374000481
 20
-238.8445043346
 10
603.1977575865
 20
-237.2034202989
 10
608.0996924104
 20
-235.8778399618
 10
612.9312086637
 20
-234.8710072404
 10
617.6804828167
 20
-234.1853860233
 10
622.3358925995
 20
-233.8226541403
 10
626.8860454444
 20
-233.7836992571
 10
631.3198063648
 20
-234.068616703
 10
635.6263252049
 20
-234.6767092372
 10
639.7950631913
 20
-235.6064887552
 10
643.8158187237
 20
-236.855679931
 10
647.6787523395
 20
-238.4212257842
 10
651.3744107927
 20
-240.299295162
 10
654.893750188
 20
-242.4852921137
 10
658.2281581121
 20
-244.9738671386
 10
661.3694747099
 20
-247.7589302765
 10
664.3100126535
 20
-250.8336660112
 10
667.0425759537
 20
-254.1905499492
 10
669.5604775702
 20
-257.821367233
 10
671.8575557758
 20
-261.7172326442
 10
673.9281892353
 20
-265.8686123474
 10
675.7673107615
 20
-270.2653472207
 10
677.370419716
 20
-274.8966777172
 10
678.7335930224
 20
-279.751270195
 10
679.8534947673
 20
-284.8172446529
 10
680.7273843635
 20
-290.0822038024
 10
681.3531232565
 20
-295.5332634063
 10
681.7291801586
 20
-301.1570838082
 10
681.8546347955
 20
-306.9399025773
  0
LWPOLYLINE
  5
193
330
1F
100
AcDbEntity
  8
0
  6
Continuous
 62
     7
370
    25
100
AcDbPolyline
 90
       44
 70
   128
 43
0.0
 10
702.1537590428
 20
-369.0979975387
 10
702.0256576389
 20
-371.1930669322
 10
701.6440836863
 20
-373.3913862916
 10
701.0171697713
 20
-375.6461022565
 10
700.1582774755
 20
-377.9091594705
 10
699.0857125972
 20
-380.1323247981
 10
697.8223349945
 20
-382.2682153302
 10
696.3950713676
 20
-384.2713082683
 10
694.8343413628
 20
-386.098911164
 10
693.1734092305
 20
-387.7120718347
 10
691.4476748555
 20
-389.0764085613
 10
689.6939192698
 20
-390.1628428752
 10
687.9495207289
 20
-390.9482193151
 10
686.2516580593
 20
-391.415798946
 10
684.6365182559
 20
-391.5556161195
 10
683.1385252196
 20
-391.3646908756
 10
681.7896060711
 20
-390.8470924542
 10
680.6185106803
 20
-390.0138525671
 10
679.6501989121
 20
-388.8827302759
 10
678.9053086508
 20
-387.4778334884
 10
678.3997159391
 20
-385.8291051404
 10
678.1441966077
 20
-383.9716850144
 10
678.1441966077
 20
-381.9451607955
 10
678.3997159391
 20
-379.7927243291
 10
678.9053086508
 20
-377.5602510615
 10
679.6501989121
 20
-375.2953222846
 10
680.6185106803
 20
-373.0462110229
 10
681.7896060711
 20
-370.8608531782
 10
683.1385252196
 20
-368.7858258589
 10
684.6365182559
 20
-366.8653546696
 10
686.2516580593
 20
-365.1403711196
 10
687.9495207289
 20
-363.6476402384
 10
689.6939192698
 20
-362.4189769932
 10
691.4476748555
 20
-361.4805682078
 10
693.1734092305
 20
-360.8524144363
 10
694.8343413628
 20
-360.5479036858
 10
696.3950713676
 20
-360.5735260742
 10
697.8223349945
 20
-360.9287355049
 10
699.0857125972
 20
-361.6059613055
 10
700.1582774755
 20
-362.5907695838
 10
701.0171697713
 20
-363.8621708611
 10
701.6440836863
 20
-365.3930674266
 10
702.0256576389
 20
-367.1508308779
 10
702.1537590428
 20
-369.0979975387
  0
LWPOLYLINE
  5
194
330
1F
100
AcDbEntity
  8
0
  6
Continuous
 62
     7
370
    25
100
AcDbPolyline
 90
       44
 70
   128
 43
0.0
 10
702.1537590428
 20
-221.3449376279
 10
702.0256576389
 20
-223.4400070214
 10
701.6440836863
 20
-225.6383263809
 10
701.0171697713
 20
-227.8930423457
 10
700.1582774755
 20
-230.1560995597
 10
699.0857125972
 20
-232.3792648874
 10
697.8223349945
 20
-234.5151554195
 10
696.3950713676
 20
-236.5182483576
 10
694.8343413628
 20
-238.3458512533
 10
693.1734092305
 20
-239.959011924
 10
691.4476748555
 20
-241.3233486505
 10
689.6939192698
 20
-242.4097829644
 10
687.9495207289
 20
-243.1951594044
 10
686.2516580593
 20
-243.6627390352
 10
684.6365182559
 20
-243.8025562088
 10
683.1385252196
 20
-243.6116309649
 10
681.7896060711
 20
-243.0940325435
 10
680.6185106803
 20
-242.2607926564
 10
679.6501989121
 20
-241.1296703652
 10
678.9053086508
 20
-239.7247735776
 10
678.3997159391
 20
-238.0760452297
 10
678.1441966078
 20
-236.2186251037
 10
678.1441966078
 20
-234.1921008848
 10
678.3997159391
 20
-232.0396644184
 10
678.9053086508
 20
-229.8071911508
 10
679.6501989121
 20
-227.5422623739
 10
680.6185106803
 20
-225.2931511122
 10
681.7896060711
 20
-223.1077932675
 10
683.1385252196
 20
-221.0327659481
 10
684.6365182559
 20
-219.1122947589
 10
686.2516580593
 20
-217.3873112089
 10
687.9495207289
 20
-215.8945803277
 10
689.6939192698
 20
-214.6659170824
 10
691.4476748555
 20
-213.7275082971
 10
693.1734092305
 20
-213.0993545256
 10
694.8343413628
 20
-212.7948437751
 10
696.3950713676
 20
-212.8204661635
 10
697.8223349945
 20
-213.1756755942
 10
699.0857125972
 20
-213.8529013947
 10
700.1582774755
 20
-214.837709673
 10
701.0171697713
 20
-216.1091109504
 10
701.6440836863
 20
-217.6400075159
 10
702.0256576389
 20
-219.3977709671
 10
702.1537590428
 20
-221.3449376279
  0
LWPOLYLINE
  5
195
330
1F
100
AcDbEntity
  8
0
  6
Continuous
 62
     7
370
    25
100
AcDbPolyline
 90
       44
 70
   128
 43
0.0
 10
655.3204528315
 20
-450.215663145
 10
655.1923514276
 20
-452.3107325385
 10
654.810777475
 20
-454.5090518979
 10
654.18386356
 20
-456.7637678628
 10
653.3249712642
 20
-459.0268250768
 10
652.2524063859
 20
-461.2499904045
 10
650.9890287832
 20
-463.3858809366
 10
649.5617651563
 20
-465.3889738746
 10
648.0010351515
 20
-467.2165767704
 10
646.3401030192
 20
-468.829737441
 10
644.6143686442
 20
-470.1940741676
 10
642.8606130585
 20
-471.2805084815
 10
641.1162145176
 20
-472.0658849215
 10
639.418351848
 20
-472.5334645523
 10
637.8032120446
 20
-472.6732817259
 10
636.3052190083
 20
-472.4823564819
 10
634.9562998598
 20
-471.9647580606
 10
633.785204469
 20
-471.1315181735
 10
632.8168927008
 20
-470.0003958822
 10
632.0720024395
 20
-468.5954990947
 10
631.5664097278
 20
-466.9467707468
 10
631.3108903964
 20
-465.0893506207
 10
631.3108903964
 20
-463.0628264018
 10
631.5664097278
 20
-460.9103899354
 10
632.0720024395
 20
-458.6779166679
 10
632.8168927008
 20
-456.4129878909
 10
633.785204469
 20
-454.1638766292
 10
634.9562998598
 20
-451.9785187845
 10
636.3052190083
 20
-449.9034914652
 10
637.8032120446
 20
-447.9830202759
 10
639.418351848
 20
-446.2580367259
 10
641.1162145176
 20
-444.7653058448
 10
642.8606130585
 20
-443.5366425995
 10
644.6143686442
 20
-442.5982338141
 10
646.3401030192
 20
-441.9700800426
 10
648.0010351515
 20
-441.6655692921
 10
649.5617651563
 20
-441.6911916806
 10
650.9890287832
 20
-442.0464011112
 10
652.2524063859
 20
-442.7236269118
 10
653.3249712642
 20
-443.7084351901
 10
654.18386356
 20
-444.9798364674
 10
654.810777475
 20
-446.510733033
 10
655.1923514276
 20
-448.2684964842
 10
655.3204528315
 20
-450.215663145
  0
LWPOLYLINE
  5
196
330
1F
100
AcDbEntity
  8
0
  6
Continuous
 62
     7
370
    25
100
AcDbPolyline
 90
       44
 70
   128
 43
0.0
 10
527.3694807758
 20
-524.0801870621
 10
527.2413793719
 20
-526.1752564556
 10
526.8598054193
 20
-528.3735758151
 10
526.2328915043
 20
-530.62829178
 10
525.3739992085
 20
-532.891348994
 10
524.3014343302
 20
-535.1145143216
 10
523.0380567275
 20
-537.2504048537
 10
521.6107931006
 20
-539.2534977918
 10
520.0500630958
 20
-541.0811006875
 10
518.3891309635
 20
-542.6942613582
 10
516.6633965885
 20
-544.0585980848
 10
514.9096410028
 20
-545.1450323986
 10
513.1652424619
 20
-545.9304088386
 10
511.4673797923
 20
-546.3979884695
 10
509.8522399889
 20
-546.537805643
 10
508.3542469526
 20
-546.3468803991
 10
507.0053278041
 20
-545.8292819777
 10
505.8342324133
 20
-544.9960420906
 10
504.8659206451
 20
-543.8649197994
 10
504.1210303838
 20
-542.4600230119
 10
503.6154376721
 20
-540.8112946639
 10
503.3599183407
 20
-538.9538745379
 10
503.3599183407
 20
-536.927350319
 10
503.6154376721
 20
-534.7749138526
 10
504.1210303838
 20
-532.542440585
 10
504.8659206451
 20
-530.2775118081
 10
505.8342324133
 20
-528.0284005464
 10
507.0053278041
 20
-525.8430427017
 10
508.3542469526
 20
-523.7680153823
 10
509.8522399889
 20
-521.8475441931
 10
511.4673797923
 20
-520.1225606431
 10
513.1652424619
 20
-518.6298297619
 10
514.9096410028
 20
-517.4011665167
 10
516.6633965885
 20
-516.4627577313
 10
518.3891309635
 20
-515.8346039598
 10
520.0500630958
 20
-515.5300932093
 10
521.6107931006
 20
-515.5557155977
 10
523.0380567275
 20
-515.9109250284
 10
524.3014343302
 20
-516.588150829
 10
525.3739992085
 20
-517.5729591073
 10
526.2328915043
 20
-518.8443603846
 10
526.8598054193
 20
-520.3752569501
 10
527.2413793719
 20
-522.1330204014
 10
527.3694807758
 20
-524.0801870621
  0
LWPOLYLINE
  5
197
330
1F
100
AcDbEntity
  8
0
  6
Continuous
 62
     7
370
    25
100
AcDbPolyline
 90
       44
 70
   128
 43
0.0
 10
463.3939947479
 20
-433.0545456511
 10
463.265893344
 20
-435.1496150446
 10
462.8843193914
 20
-437.3479344041
 10
462.2574054764
 20
-439.602650369
 10
461.3985131807
 20
-441.865707583
 10
460.3259483023
 20
-444.0888729106
 10
459.0625706996
 20
-446.2247634427
 10
457.6353070727
 20
-448.2278563808
 10
456.074577068
 20
-450.0554592765
 10
454.4136449357
 20
-451.6686199472
 10
452.6879105606
 20
-453.0329566738
 10
450.9341549749
 20
-454.1193909876
 10
449.1897564341
 20
-454.9047674276
 10
447.4918937644
 20
-455.3723470585
 10
445.876753961
 20
-455.512164232
 10
444.3787609247
 20
-455.3212389881
 10
443.0298417763
 20
-454.8036405667
 10
441.8587463854
 20
-453.9704006796
 10
440.8904346173
 20
-452.8392783884
 10
440.145544356
 20
-451.4343816009
 10
439.6399516442
 20
-449.7856532529
 10
439.3844323129
 20
-447.9282331269
 10
439.3844323129
 20
-445.901708908
 10
439.6399516442
 20
-443.7492724416
 10
440.145544356
 20
-441.516799174
 10
440.8904346173
 20
-439.2518703971
 10
441.8587463854
 20
-437.0027591354
 10
443.0298417763
 20
-434.8174012907
 10
444.3787609247
 20
-432.7423739713
 10
445.876753961
 20
-430.8219027821
 10
447.4918937644
 20
-429.0969192321
 10
449.1897564341
 20
-427.6041883509
 10
450.9341549749
 20
-426.3755251057
 10
452.6879105606
 20
-425.4371163203
 10
454.4136449357
 20
-424.8089625488
 10
456.074577068
 20
-424.5044517983
 10
457.6353070727
 20
-424.5300741867
 10
459.0625706996
 20
-424.8852836174
 10
460.3259483023
 20
-425.562509418
 10
461.3985131807
 20
-426.5473176963
 10
462.2574054764
 20
-427.8187189736
 10
462.8843193914
 20
-429.3496155391
 10
463.265893344
 20
-431.1073789904
 10
463.3939947479
 20
-433.0545456511
  0
LWPOLYLINE
  5
198
330
1F
100
AcDbEntity
  8
0
  6
Continuous
 62
     7
370
    25
100
AcDbPolyline
 90
       44
 70
   128
 43
0.0
 10
527.3694807758
 20
-268.164380323
 10
527.2413793719
 20
-270.2594497165
 10
526.8598054193
 20
-272.4577690759
 10
526.2328915043
 20
-274.7124850408
 10
525.3739992085
 20
-276.9755422548
 10
524.3014343302
 20
-279.1987075825
 10
523.0380567275
 20
-281.3345981146
 10
521.6107931006
 20
-283.3376910526
 10
520.0500630958
 20
-285.1652939484
 10
518.3891309635
 20
-286.778454619
 10
516.6633965885
 20
-288.1427913456
 10
514.9096410028
 20
-289.2292256595
 10
513.1652424619
 20
-290.0146020995
 10
511.4673797923
 20
-290.4821817303
 10
509.8522399889
 20
-290.6219989039
 10
508.3542469526
 20
-290.4310736599
 10
507.0053278041
 20
-289.9134752386
 10
505.8342324133
 20
-289.0802353515
 10
504.8659206451
 20
-287.9491130602
 10
504.1210303838
 20
-286.5442162727
 10
503.6154376721
 20
-284.8954879248
 10
503.3599183407
 20
-283.0380677987
 10
503.3599183407
 20
-281.0115435798
 10
503.6154376721
 20
-278.8591071134
 10
504.1210303838
 20
-276.6266338459
 10
504.8659206451
 20
-274.3617050689
 10
505.8342324133
 20
-272.1125938072
 10
507.0053278041
 20
-269.9272359625
 10
508.3542469526
 20
-267.8522086432
 10
509.8522399889
 20
-265.9317374539
 10
511.4673797923
 20
-264.2067539039
 10
513.1652424619
 20
-262.7140230228
 10
514.9096410028
 20
-261.4853597775
 10
516.6633965885
 20
-260.5469509921
 10
518.3891309635
 20
-259.9187972206
 10
520.0500630958
 20
-259.6142864701
 10
521.6107931006
 20
-259.6399088586
 10
523.0380567275
 20
-259.9951182892
 10
524.3014343302
 20
-260.6723440898
 10
525.3739992085
 20
-261.6571523681
 10
526.2328915043
 20
-262.9285536454
 10
526.8598054193
 20
-264.459450211
 10
527.2413793719
 20
-266.2172136622
 10
527.3694807758
 20
-268.164380323
  0
ARC
  5
199
330
1F
100
AcDbEntity
  8
0
  6
Continuous
 62
     7
370
    25
100
AcDbCircle
 10
627.2280670074
 20
-284.7779467144
 30
0.0
 40
49.56914817540049
100
AcDbArc
 50
37.8863519018
 51
82.3535158167
  0
ARC
  5
19A
330
1F
100
AcDbEntity
  8
0
  6
Continuous
 62
     7
370
    25
100
AcDbCircle
 10
532.8757275716
 20
-448.2427925404
 30
0.0
 40
49.63405959806544
100
AcDbArc
 50
218.1486114295
 51
263.1810995383
  0
ARC
  5
19B
330
1F
100
AcDbEntity
  8
0
  6
Continuous
 62
     7
370
    25
100
AcDbCircle
 10
556.8284633191
 20
-457.9796289013
 30
0.0
 40
53.3397663989747
100
AcDbArc
 50
217.5569299009
 51
225.480309094
  0
ARC
  5
19C
330
1F
100
AcDbEntity
  8
0
  6
Continuous
 62
     7
370
    25
100
AcDbCircle
 10
647.7160893545
 20
-300.2687918011
 30
0.0
 40
52.88155958053491
100
AcDbArc
 50
74.5015804974
 51
81.3341034769
  0
LINE
  5
19D
330
1F
100
AcDbEntity
  8
0
  6
Continuous
 62
     7
370
    25
100
AcDbLine
 10
682.5813270666
 20
-390.142679854
 30
0.0
 11
682.8407006827
 21
-390.3024523432
 31
0.0
  0
LINE
  5
19E
330
1F
100
AcDbEntity
  8
0
  6
Continuous
 62
     7
370
    25
100
AcDbLine
 10
635.7480208553
 20
-471.2603454604
 30
0.0
 11
636.0073944714
 21
-471.4201179495
 31
0.0
  0
LINE
  5
19F
330
1F
100
AcDbEntity
  8
0
  6
Continuous
 62
     7
370
    25
100
AcDbLine
 10
699.7235068832
 20
-306.3701801322
 30
0.0
 11
699.9828804993
 21
-306.5299526213
 31
0.0
  0
LINE
  5
1A0
330
1F
100
AcDbEntity
  8
0
  6
Continuous
 62
     7
370
    25
100
AcDbLine
 10
571.7725348274
 20
-527.9877639601
 30
0.0
 11
572.0319084436
 21
-528.1475364492
 31
0.0
  0
LINE
  5
1A1
330
1F
100
AcDbEntity
  8
0
  6
Continuous
 62
     7
370
    25
100
AcDbLine
 10
682.5813270666
 20
-242.3896199433
 30
0.0
 11
682.8407006827
 21
-242.5493924324
 31
0.0
  0
LINE
  5
1A2
330
1F
100
AcDbEntity
  8
0
  6
Continuous
 62
     7
370
    25
100
AcDbLine
 10
507.7970487996
 20
-545.1248693775
 30
0.0
 11
508.0564224157
 21
-545.2846418666
 31
0.0
  0
LINE
  5
1A3
330
1F
100
AcDbEntity
  8
0
  6
Continuous
 62
     7
370
    25
100
AcDbLine
 10
635.7480208553
 20
-215.3445387212
 30
0.0
 11
636.0073944714
 21
-215.5043112103
 31
0.0
  0
LINE
  5
1A4
330
1F
100
AcDbEntity
  8
0
  6
Continuous
 62
     7
370
    25
100
AcDbLine
 10
460.9637425883
 20
-518.0797881554
 30
0.0
 11
461.2231162044
 21
-518.2395606446
 31
0.0
  0
LINE
  5
1A5
330
1F
100
AcDbEntity
  8
0
  6
Continuous
 62
     7
370
    25
100
AcDbLine
 10
571.7725348274
 20
-232.4816441386
 30
0.0
 11
572.0319084436
 21
-232.6414166278
 31
0.0
  0
LINE
  5
1A6
330
1F
100
AcDbEntity
  8
0
  6
Continuous
 62
     7
370
    25
100
AcDbLine
 10
443.8215627717
 20
-454.0992279665
 30
0.0
 11
444.0809363879
 21
-454.2590004556
 31
0.0
  0
LINE
  5
1A7
330
1F
100
AcDbEntity
  8
0
  6
Continuous
 62
     7
370
    25
100
AcDbLine
 10
507.7970487996
 20
-289.2090626384
 30
0.0
 11
508.0564224157
 21
-289.3688351275
 31
0.0
  0
LINE
  5
1A8
330
1F
100
AcDbEntity
  8
0
  6
Continuous
 62
     7
370
    25
100
AcDbLine
 10
460.9637425883
 20
-370.3267282447
 30
0.0
 11
461.2231162044
 21
-370.4865007338
 31
0.0
  0
LWPOLYLINE
  5
1A9
330
1F
100
AcDbEntity
  8
0
  6
Continuous
 62
     1
370
    25
100
AcDbPolyline
 90
       52
 70
   128
 43
0.0
 10
725.6952552291
 20
-282.4476592226
 10
725.5708229814
 20
-289.4706592032
 10
725.1977388289
 20
-296.6253269212
 10
724.5766401795
 20
-303.8994387469
 10
723.7085881699
 20
-311.2805669822
 10
722.5950658523
 20
-318.7561010933
 10
721.237975661
 20
-326.3132692557
 10
719.6396361617
 20
-333.9391601743
 10
717.8027780908
 20
-341.6207451424
 10
715.7305396894
 20
-349.3449003008
 10
713.426461342
 20
-357.0984290602
 10
710.8944795279
 20
-364.8680846467
 10
708.1389200955
 20
-372.6405927339
 10
705.1644908719
 20
-380.4026741224
 10
701.9762736195
 20
-388.1410674261
 10
698.5797153541
 20
-395.84255173
 10
694.9806190383
 20
-403.4939691773
 10
691.185133668
 20
-411.0822474497
 10
687.1997437662
 20
-418.594422101
 10
683.0312583047
 20
-426.0176587068
 10
678.6867990709
 20
-433.3392747919
 10
674.1737885007
 20
-440.5467614981
 10
669.4999369968
 20
-447.6278049552
 10
664.6732297562
 20
-454.5703073192
 10
659.7019131272
 20
-461.3624074414
 10
654.5944805209
 20
-467.9925011325
 10
649.3596579002
 20
-474.4492609888
 10
644.0063888717
 20
-480.7216557444
 10
638.5438194059
 20
-486.798969118
 10
632.9812822109
 20
-492.6708181216
 10
627.3282807882
 20
-498.3271707997
 10
621.5944731961
 20
-503.7583633688
 10
615.7896555485
 20
-508.9551167273
 10
609.9237452791
 20
-513.9085523093
 10
604.0067641971
 20
-518.6102072532
 10
598.0488213654
 20
-523.0520488605
 10
592.0600958296
 20
-527.2264883193
 10
586.0508192265
 20
-531.1263936697
 10
580.0312583047
 20
-534.7451019889
 10
574.0116973828
 20
-538.0764307744
 10
568.0024207798
 20
-541.1146885069
 10
562.0136952439
 20
-543.854684374
 10
556.0557524122
 20
-546.2917371387
 10
550.1387713302
 20
-548.4216831373
 10
544.2728610608
 20
-550.2408833928
 10
538.4680434132
 20
-551.746229832
 10
532.7342358211
 20
-552.9351505958
 10
527.0812343984
 20
-553.805614433
 10
521.5186972034
 20
-554.3561341707
 10
516.0561277376
 20
-554.5857692553
 10
510.7028587091
 20
-554.494127359
 10
507.1713453863
 20
-554.2520995522
  0
LWPOLYLINE
  5
1AA
330
1F
100
AcDbEntity
  8
0
  6
Continuous
 62
     1
370
    25
100
AcDbPolyline
 90
       14
 70
   128
 43
0.0
 10
706.4746832063
 20
-210.0319673959
 10
708.1389200955
 20
-212.5248387951
 10
710.8944795279
 20
-217.1158456819
 10
713.426461342
 20
-221.9621372913
 10
715.7305396894
 20
-227.0554338155
 10
717.8027780908
 20
-232.3870334426
 10
719.6396361617
 20
-237.9478272243
 10
721.237975661
 20
-243.7283146376
 10
722.5950658523
 20
-249.7186198167
 10
723.7085881699
 20
-255.9085084257
 10
724.5766401795
 20
-262.2874051438
 10
725.1977388289
 20
-268.8444117329
 10
725.5708229814
 20
-275.5683256572
 10
725.6952552291
 20
-282.4476592226
  0
LWPOLYLINE
  5
1AB
330
1F
100
AcDbEntity
  8
0
  6
Continuous
 62
     1
370
    25
100
AcDbPolyline
 90
       14
 70
   128
 43
0.0
 10
746.9084586647
 20
-294.6937809
 10
746.784026417
 20
-287.8144473345
 10
746.4109422645
 20
-281.0905334102
 10
745.7898436151
 20
-274.5335268211
 10
744.9217916055
 20
-268.154630103
 10
743.8082692879
 20
-261.964741494
 10
742.4511790966
 20
-255.9744363149
 10
740.8528395973
 20
-250.1939489016
 10
739.0159815264
 20
-244.63315512
 10
736.943743125
 20
-239.3015554928
 10
734.6396647776
 20
-234.2082589687
 10
732.1076829635
 20
-229.3619673592
 10
729.3521235311
 20
-224.7709604724
 10
726.7189401703
 20
-220.9108678391
  0
LWPOLYLINE
  5
1AC
330
1F
100
AcDbEntity
  8
0
  6
Continuous
 62
     1
370
    25
100
AcDbPolyline
 90
       52
 70
   128
 43
0.0
 10
529.0786801305
 20
-566.5575913611
 10
531.9160621447
 20
-566.7402490363
 10
537.2693311732
 20
-566.8318909326
 10
542.731900639
 20
-566.6022558481
 10
548.294437834
 20
-566.0517361103
 10
553.9474392567
 20
-565.1812722731
 10
559.6812468488
 20
-563.9923515093
 10
565.4860644964
 20
-562.4870050701
 10
571.3519747658
 20
-560.6678048147
 10
577.2689558478
 20
-558.537858816
 10
583.2268986795
 20
-556.1008060513
 10
589.2156242154
 20
-553.3608101842
 10
595.2249008184
 20
-550.3225524517
 10
601.2444617403
 20
-546.9912236662
 10
607.2640226621
 20
-543.372515347
 10
613.2732992652
 20
-539.4726099966
 10
619.262024801
 20
-535.2981705379
 10
625.2199676327
 20
-530.8563289306
 10
631.1369487147
 20
-526.1546739866
 10
637.0028589841
 20
-521.2012384046
 10
642.8076766317
 20
-516.0044850461
 10
648.5414842238
 20
-510.5732924771
 10
654.1944856465
 20
-504.9169397989
 10
659.7570228415
 20
-499.0450907953
 10
665.2195923073
 20
-492.9677774217
 10
670.5728613358
 20
-486.6953826662
 10
675.8076839565
 20
-480.2386228099
 10
680.9151165628
 20
-473.6085291187
 10
685.8864331918
 20
-466.8164289966
 10
690.7131404324
 20
-459.8739266325
 10
695.3869919363
 20
-452.7928831754
 10
699.9000025065
 20
-445.5853964692
 10
704.2444617403
 20
-438.2637803841
 10
708.4129472018
 20
-430.8405437783
 10
712.3983371036
 20
-423.328369127
 10
716.1938224739
 20
-415.7400908547
 10
719.7929187896
 20
-408.0886734074
 10
723.1894770551
 20
-400.3871891035
 10
726.3776943075
 20
-392.6487957997
 10
729.3521235311
 20
-384.8867144113
 10
732.1076829635
 20
-377.114206324
 10
734.6396647776
 20
-369.3445507376
 10
736.943743125
 20
-361.5910219782
 10
739.0159815264
 20
-353.8668668197
 10
740.8528395973
 20
-346.1852818516
 10
742.4511790966
 20
-338.5593909331
 10
743.8082692879
 20
-331.0022227707
 10
744.9217916055
 20
-323.5266886595
 10
745.7898436151
 20
-316.1455604242
 10
746.4109422645
 20
-308.8714485985
 10
746.784026417
 20
-301.7167808805
 10
746.9084586647
 20
-294.6937809
  0
LWPOLYLINE
  5
1AD
330
1F
100
AcDbEntity
  8
0
  6
Continuous
 62
     1
370
    25
100
AcDbPolyline
 90
       56
 70
   128
 43
0.0
 10
633.8237637308
 20
-235.6495716591
 10
631.668322423
 20
-235.3875854071
 10
627.265139164
 20
-235.1046329091
 10
622.7463666836
 20
-235.1433191379
 10
618.1230631751
 20
-235.5035494217
 10
613.406542637
 20
-236.1844422166
 10
608.6083471854
 20
-237.184331264
 10
603.7402188086
 20
-238.5007696678
 10
598.8140706325
 20
-240.1305358826
 10
593.8419577672
 20
-242.0696415973
 10
588.836047806
 20
-244.3133414953
 10
583.8085910495
 20
-246.8561448671
 10
578.7718905268
 20
-249.6918290466
 10
573.738271888
 20
-252.8134546395
 10
568.7200532415
 20
-256.2133825048
 10
563.7295150093
 20
-259.8832924494
 10
558.7788698746
 20
-263.8142035887
 10
553.8802328957
 20
-267.9964963243
 10
549.0455918582
 20
-272.4199358852
 10
544.2867779387
 20
-277.0736973734
 10
539.6154367525
 20
-281.9463922548
 10
535.0429998541
 20
-287.0260962284
 10
530.5806567629
 20
-292.3003784075
 10
526.2393275802
 20
-297.7563317397
 10
522.029636266
 20
-303.380604593
 10
517.9618846403
 20
-309.1594334292
 10
514.0460271731
 20
-315.0786764858
 10
510.2916466236
 20
-321.1238483831
 10
506.7079305903
 20
-327.2801555725
 10
503.3036490268
 20
-333.5325325387
 10
500.0871327806
 20
-339.8656786675
 10
497.0662532059
 20
-346.2640956892
 10
494.2484029013
 20
-352.712125605
 10
491.6404776185
 20
-359.1939890052
 10
489.2488593879
 20
-365.6938236839
 10
487.0794009
 20
-372.1957234566
 10
485.1374111832
 20
-378.6837770848
 10
483.4276426119
 20
-385.1421072143
 10
481.9542792761
 20
-391.5549092288
 10
480.7209267429
 20
-397.9064899273
 10
479.7306032327
 20
-404.1813059275
 10
478.9857322329
 20
-410.3640017031
 10
478.4881365678
 20
-416.4394471615
 10
478.2390339373
 20
-422.3927746696
 10
478.2390339373
 20
-428.2094154374
 10
478.4881365678
 20
-433.8751351703
 10
478.9857322329
 20
-439.3760689026
 10
479.7306032327
 20
-444.6987549277
 10
480.7209267429
 20
-449.8301677409
 10
481.9542792761
 20
-454.7577499153
 10
483.4276426119
 20
-459.4694428315
 10
485.1374111832
 20
-463.9537161874
 10
487.0794009
 20
-468.1995962146
 10
489.2488593879
 20
-472.1966925334
 10
491.6404776185
 20
-475.9352235791
 10
493.8429458445
 20
-478.9019155354
  0
LWPOLYLINE
  5
1AE
330
1F
100
AcDbEntity
  8
0
  6
Continuous
 62
     1
370
    25
100
AcDbPolyline
 90
       56
 70
   128
 43
0.0
 10
514.5434661984
 20
-490.4928523342
 10
512.8536810541
 20
-488.1813452564
 10
510.4620628235
 20
-484.4428142107
 10
508.2926043356
 20
-480.445717892
 10
506.3506146188
 20
-476.1998378647
 10
504.6408460475
 20
-471.7155645088
 10
503.1674827117
 20
-467.0038715926
 10
501.9341301785
 20
-462.0762894183
 10
500.9438066683
 20
-456.944876605
 10
500.1989356685
 20
-451.6221905799
 10
499.7013400034
 20
-446.1212568476
 10
499.4522373729
 20
-440.4555371148
 10
499.4522373729
 20
-434.6388963469
 10
499.7013400034
 20
-428.6855688388
 10
500.1989356685
 20
-422.6101233804
 10
500.9438066683
 20
-416.4274276048
 10
501.9341301785
 20
-410.1526116046
 10
503.1674827117
 20
-403.8010309061
 10
504.6408460475
 20
-397.3882288916
 10
506.3506146188
 20
-390.9298987622
 10
508.2926043356
 20
-384.4418451339
 10
510.4620628235
 20
-377.9399453613
 10
512.8536810541
 20
-371.4401106825
 10
515.4616063369
 20
-364.9582472823
 10
518.2794566415
 20
-358.5102173665
 10
521.3003362162
 20
-352.1118003449
 10
524.5168524624
 20
-345.778654216
 10
527.9211340259
 20
-339.5262772498
 10
531.5048500592
 20
-333.3699700604
 10
535.2592306087
 20
-327.3247981631
 10
539.1750880759
 20
-321.4055551065
 10
543.2428397016
 20
-315.6267262703
 10
547.4525310158
 20
-310.0024534171
 10
551.7938601985
 20
-304.5465000849
 10
556.2562032897
 20
-299.2722179058
 10
560.8286401881
 20
-294.1925139321
 10
565.4999813743
 20
-289.3198190507
 10
570.2587952938
 20
-284.6660575625
 10
575.0934363313
 20
-280.2426180017
 10
579.9920733102
 20
-276.060325266
 10
584.9427184449
 20
-272.1294141268
 10
589.9332566771
 20
-268.4595041822
 10
594.9514753236
 20
-265.0595763168
 10
599.9850939624
 20
-261.9379507239
 10
605.0217944851
 20
-259.1022665444
 10
610.0492512416
 20
-256.5594631727
 10
615.0551612028
 20
-254.3157632746
 10
620.0272740681
 20
-252.3766575599
 10
624.9534222442
 20
-250.7468913452
 10
629.821550621
 20
-249.4304529414
 10
634.6197460726
 20
-248.430563894
 10
639.3362666107
 20
-247.749671099
 10
643.9595701192
 20
-247.3894408152
 10
648.4783425996
 20
-247.3507545864
 10
652.8815258586
 20
-247.6337070844
 10
655.6838821306
 20
-247.9909415971
  0
LWPOLYLINE
  5
1AF
330
1F
100
AcDbEntity
  8
0
  6
Continuous
 62
     1
370
    25
100
AcDbPolyline
 90
       23
 70
   128
 43
0.0
 10
698.8550249602
 20
-362.5979439097
 10
697.8940324141
 20
-362.1591364748
 10
696.4969047933
 20
-361.8657167167
 10
694.9734123962
 20
-361.8979890344
 10
693.3575875255
 20
-362.2552325177
 10
691.6855250387
 20
-362.9294669376
 10
689.9945760489
 20
-363.9056310112
 10
688.3225135621
 20
-365.1619188462
 10
686.7066886914
 20
-366.6702670484
 10
685.1831962943
 20
-368.3969816112
 10
683.7860686735
 20
-370.3034905848
 10
682.5465153513
 20
-372.3472057091
 10
681.4922259006
 20
-374.4824737653
 10
680.6467514057
 20
-376.6615963935
 10
680.0289783696
 20
-378.835895595
 10
679.6527068211
 20
-380.9568011186
 10
679.5263420448
 20
-382.9769354396
 10
679.6527068211
 20
-384.8511720955
 10
680.0289783696
 20
-386.5376437364
 10
680.6467514057
 20
-387.9986773728
 10
681.4922259006
 20
-389.2016359273
 10
682.5465153513
 20
-390.1196472938
 10
682.5813270666
 20
-390.142679854
  0
LWPOLYLINE
  5
1B0
330
1F
100
AcDbEntity
  8
0
  6
Continuous
 62
     1
370
    25
100
AcDbPolyline
 90
       23
 70
   128
 43
0.0
 10
652.0217187489
 20
-443.715609516
 10
651.0607262028
 20
-443.2768020811
 10
649.663598582
 20
-442.983382323
 10
648.1401061849
 20
-443.0156546407
 10
646.5242813142
 20
-443.372898124
 10
644.8522188274
 20
-444.0471325439
 10
643.1612698376
 20
-445.0232966176
 10
641.4892073508
 20
-446.2795844526
 10
639.8733824801
 20
-447.7879326547
 10
638.349890083
 20
-449.5146472176
 10
636.9527624622
 20
-451.4211561912
 10
635.71320914
 20
-453.4648713154
 10
634.6589196893
 20
-455.6001393716
 10
633.8134451944
 20
-457.7792619998
 10
633.1956721583
 20
-459.9535612013
 10
632.8194006098
 20
-462.0744667249
 10
632.6930358335
 20
-464.094601046
 10
632.8194006098
 20
-465.9688377019
 10
633.1956721583
 20
-467.6553093428
 10
633.8134451944
 20
-469.1163429791
 10
634.6589196893
 20
-470.3193015336
 10
635.71320914
 20
-471.2373129001
 10
635.7480208553
 20
-471.2603454604
  0
LWPOLYLINE
  5
1B1
330
1F
100
AcDbEntity
  8
0
  6
Continuous
 62
     1
370
    25
100
AcDbPolyline
 90
       23
 70
   128
 43
0.0
 10
715.9972047767
 20
-278.8254441879
 10
715.0362122307
 20
-278.386636753
 10
713.6390846099
 20
-278.0932169948
 10
712.1155922128
 20
-278.1254893125
 10
710.4997673421
 20
-278.4827327959
 10
708.8277048553
 20
-279.1569672158
 10
707.1367558654
 20
-280.1331312894
 10
705.4646933787
 20
-281.3894191244
 10
703.848868508
 20
-282.8977673265
 10
702.3253761109
 20
-284.6244818894
 10
700.92824849
 20
-286.530990863
 10
699.6886951678
 20
-288.5747059873
 10
698.6344057172
 20
-290.7099740435
 10
697.7889312223
 20
-292.8890966716
 10
697.1711581861
 20
-295.0633958731
 10
696.7948866376
 20
-297.1843013968
 10
696.6685218614
 20
-299.2044357178
 10
696.7948866376
 20
-301.0786723737
 10
697.1711581861
 20
-302.7651440146
 10
697.7889312223
 20
-304.2261776509
 10
698.6344057172
 20
-305.4291362055
 10
699.6886951678
 20
-306.347147572
 10
699.7235068832
 20
-306.3701801322
  0
LWPOLYLINE
  5
1B2
330
1F
100
AcDbEntity
  8
0
  6
Continuous
 62
     1
370
    25
100
AcDbPolyline
 90
       23
 70
   128
 43
0.0
 10
588.046232721
 20
-500.4430280158
 10
587.085240175
 20
-500.0042205809
 10
585.6881125541
 20
-499.7108008227
 10
584.164620157
 20
-499.7430731404
 10
582.5487952864
 20
-500.1003166238
 10
580.8767327996
 20
-500.7745510437
 10
579.1857838097
 20
-501.7507151173
 10
577.5137213229
 20
-503.0070029523
 10
575.8978964522
 20
-504.5153511544
 10
574.3744040552
 20
-506.2420657173
 10
572.9772764343
 20
-508.1485746909
 10
571.7377231121
 20
-510.1922898152
 10
570.6834336615
 20
-512.3275578714
 10
569.8379591665
 20
-514.5066804995
 10
569.2201861304
 20
-516.680979701
 10
568.8439145819
 20
-518.8018852247
 10
568.7175498057
 20
-520.8220195457
 10
568.8439145819
 20
-522.6962562016
 10
569.2201861304
 20
-524.3827278425
 10
569.8379591665
 20
-525.8437614788
 10
570.6834336615
 20
-527.0467200334
 10
571.7377231121
 20
-527.9647313999
 10
571.7725348274
 20
-527.9877639601
  0
LWPOLYLINE
  5
1B3
330
1F
100
AcDbEntity
  8
0
  6
Continuous
 62
     1
370
    25
100
AcDbPolyline
 90
       23
 70
   128
 43
0.0
 10
698.8550249602
 20
-214.844883999
 10
697.8940324141
 20
-214.4060765641
 10
696.4969047933
 20
-214.1126568059
 10
694.9734123962
 20
-214.1449291236
 10
693.3575875255
 20
-214.502172607
 10
691.6855250387
 20
-215.1764070269
 10
689.9945760489
 20
-216.1525711005
 10
688.3225135621
 20
-217.4088589355
 10
686.7066886914
 20
-218.9172071376
 10
685.1831962943
 20
-220.6439217005
 10
683.7860686735
 20
-222.5504306741
 10
682.5465153513
 20
-224.5941457984
 10
681.4922259006
 20
-226.7294138546
 10
680.6467514057
 20
-228.9085364827
 10
680.0289783696
 20
-231.0828356842
 10
679.6527068211
 20
-233.2037412079
 10
679.5263420448
 20
-235.2238755289
 10
679.6527068211
 20
-237.0981121848
 10
680.0289783696
 20
-238.7845838257
 10
680.6467514057
 20
-240.245617462
 10
681.4922259006
 20
-241.4485760166
 10
682.5465153513
 20
-242.3665873831
 10
682.5813270666
 20
-242.3896199433
  0
LWPOLYLINE
  5
1B4
330
1F
100
AcDbEntity
  8
0
  6
Continuous
 62
     1
370
    25
100
AcDbPolyline
 90
       23
 70
   128
 43
0.0
 10
524.0707466932
 20
-517.5801334332
 10
523.1097541471
 20
-517.1413259983
 10
521.7126265263
 20
-516.8479062401
 10
520.1891341292
 20
-516.8801785579
 10
518.5733092585
 20
-517.2374220412
 10
516.9012467717
 20
-517.9116564611
 10
515.2102977819
 20
-518.8878205347
 10
513.5382352951
 20
-520.1441083697
 10
511.9224104244
 20
-521.6524565719
 10
510.3989180273
 20
-523.3791711347
 10
509.0017904065
 20
-525.2856801083
 10
507.7622370843
 20
-527.3293952326
 10
506.7079476336
 20
-529.4646632888
 10
505.8624731387
 20
-531.6437859169
 10
505.2447001026
 20
-533.8180851185
 10
504.8684285541
 20
-535.9389906421
 10
504.7420637778
 20
-537.9591249631
 10
504.8684285541
 20
-539.833361619
 10
505.2447001026
 20
-541.5198332599
 10
505.8624731387
 20
-542.9808668962
 10
506.7079476336
 20
-544.1838254508
 10
507.7622370843
 20
-545.1018368173
 10
507.7970487996
 20
-545.1248693775
  0
LWPOLYLINE
  5
1B5
330
1F
100
AcDbEntity
  8
0
  6
Continuous
 62
     1
370
    25
100
AcDbPolyline
 90
       23
 70
   128
 43
0.0
 10
652.0217187489
 20
-187.7998027769
 10
651.0607262028
 20
-187.360995342
 10
649.663598582
 20
-187.0675755838
 10
648.1401061849
 20
-187.0998479015
 10
646.5242813142
 20
-187.4570913849
 10
644.8522188274
 20
-188.1313258048
 10
643.1612698376
 20
-189.1074898784
 10
641.4892073508
 20
-190.3637777134
 10
639.8733824801
 20
-191.8721259155
 10
638.349890083
 20
-193.5988404784
 10
636.9527624622
 20
-195.505349452
 10
635.71320914
 20
-197.5490645763
 10
634.6589196893
 20
-199.6843326325
 10
633.8134451944
 20
-201.8634552606
 10
633.1956721583
 20
-204.0377544621
 10
632.8194006098
 20
-206.1586599858
 10
632.6930358335
 20
-208.1787943068
 10
632.8194006098
 20
-210.0530309627
 10
633.1956721583
 20
-211.7395026036
 10
633.8134451944
 20
-213.2005362399
 10
634.6589196893
 20
-214.4034947945
 10
635.71320914
 20
-215.321506161
 10
635.7480208553
 20
-215.3445387212
  0
LWPOLYLINE
  5
1B6
330
1F
100
AcDbEntity
  8
0
  6
Continuous
 62
     1
370
    25
100
AcDbPolyline
 90
       23
 70
   128
 43
0.0
 10
477.2374404819
 20
-490.5350522111
 10
476.2764479358
 20
-490.0962447762
 10
474.879320315
 20
-489.8028250181
 10
473.3558279179
 20
-489.8350973358
 10
471.7400030472
 20
-490.1923408191
 10
470.0679405604
 20
-490.866575239
 10
468.3769915706
 20
-491.8427393126
 10
466.7049290838
 20
-493.0990271476
 10
465.0891042131
 20
-494.6073753498
 10
463.565611816
 20
-496.3340899126
 10
462.1684841952
 20
-498.2405988862
 10
460.928930873
 20
-500.2843140105
 10
459.8746414223
 20
-502.4195820667
 10
459.0291669274
 20
-504.5987046949
 10
458.4113938913
 20
-506.7730038964
 10
458.0351223428
 20
-508.89390942
 10
457.9087575665
 20
-510.914043741
 10
458.0351223428
 20
-512.7882803969
 10
458.4113938913
 20
-514.4747520378
 10
459.0291669274
 20
-515.9357856742
 10
459.8746414223
 20
-517.1387442287
 10
460.928930873
 20
-518.0567555952
 10
460.9637425883
 20
-518.0797881554
  0
LWPOLYLINE
  5
1B7
330
1F
100
AcDbEntity
  8
0
  6
Continuous
 62
     1
370
    25
100
AcDbPolyline
 90
       23
 70
   128
 43
0.0
 10
588.046232721
 20
-204.9369081943
 10
587.085240175
 20
-204.4981007594
 10
585.6881125541
 20
-204.2046810013
 10
584.1646201571
 20
-204.236953319
 10
582.5487952864
 20
-204.5941968023
 10
580.8767327996
 20
-205.2684312222
 10
579.1857838097
 20
-206.2445952958
 10
577.513721323
 20
-207.5008831308
 10
575.8978964523
 20
-209.009231333
 10
574.3744040552
 20
-210.7359458958
 10
572.9772764343
 20
-212.6424548694
 10
571.7377231121
 20
-214.6861699937
 10
570.6834336615
 20
-216.8214380499
 10
569.8379591665
 20
-219.0005606781
 10
569.2201861304
 20
-221.1748598796
 10
568.8439145819
 20
-223.2957654032
 10
568.7175498057
 20
-225.3158997242
 10
568.8439145819
 20
-227.1901363801
 10
569.2201861304
 20
-228.876608021
 10
569.8379591665
 20
-230.3376416574
 10
570.6834336615
 20
-231.5406002119
 10
571.7377231121
 20
-232.4586115784
 10
571.7725348274
 20
-232.4816441386
  0
LWPOLYLINE
  5
1B8
330
1F
100
AcDbEntity
  8
0
  6
Continuous
 62
     1
370
    25
100
AcDbPolyline
 90
       23
 70
   128
 43
0.0
 10
460.0952606653
 20
-426.5544920222
 10
459.1342681193
 20
-426.1156845873
 10
457.7371404984
 20
-425.8222648291
 10
456.2136481013
 20
-425.8545371469
 10
454.5978232306
 20
-426.2117806302
 10
452.9257607439
 20
-426.8860150501
 10
451.234811754
 20
-427.8621791237
 10
449.5627492672
 20
-429.1184669587
 10
447.9469243965
 20
-430.6268151608
 10
446.4234319994
 20
-432.3535297237
 10
445.0263043786
 20
-434.2600386973
 10
443.7867510564
 20
-436.3037538216
 10
442.7324616058
 20
-438.4390218778
 10
441.8869871108
 20
-440.6181445059
 10
441.2692140747
 20
-442.7924437075
 10
440.8929425262
 20
-444.9133492311
 10
440.76657775
 20
-446.9334835521
 10
440.8929425262
 20
-448.807720208
 10
441.2692140747
 20
-450.4941918489
 10
441.8869871108
 20
-451.9552254852
 10
442.7324616058
 20
-453.1581840398
 10
443.7867510564
 20
-454.0761954063
 10
443.8215627717
 20
-454.0992279665
  0
LWPOLYLINE
  5
1B9
330
1F
100
AcDbEntity
  8
0
  6
Continuous
 62
     1
370
    25
100
AcDbPolyline
 90
       23
 70
   128
 43
0.0
 10
524.0707466932
 20
-261.664326694
 10
523.1097541471
 20
-261.2255192591
 10
521.7126265263
 20
-260.932099501
 10
520.1891341292
 20
-260.9643718187
 10
518.5733092585
 20
-261.321615302
 10
516.9012467717
 20
-261.9958497219
 10
515.2102977819
 20
-262.9720137955
 10
513.5382352951
 20
-264.2283016306
 10
511.9224104244
 20
-265.7366498327
 10
510.3989180273
 20
-267.4633643956
 10
509.0017904065
 20
-269.3698733692
 10
507.7622370843
 20
-271.4135884934
 10
506.7079476336
 20
-273.5488565496
 10
505.8624731387
 20
-275.7279791778
 10
505.2447001026
 20
-277.9022783793
 10
504.8684285541
 20
-280.0231839029
 10
504.7420637778
 20
-282.043318224
 10
504.8684285541
 20
-283.9175548799
 10
505.2447001026
 20
-285.6040265208
 10
505.8624731387
 20
-287.0650601571
 10
506.7079476336
 20
-288.2680187116
 10
507.7622370843
 20
-289.1860300781
 10
507.7970487996
 20
-289.2090626384
  0
LWPOLYLINE
  5
1BA
330
1F
100
AcDbEntity
  8
0
  6
Continuous
 62
     1
370
    25
100
AcDbPolyline
 90
       23
 70
   128
 43
0.0
 10
477.2374404819
 20
-342.7819923004
 10
476.2764479358
 20
-342.3431848655
 10
474.879320315
 20
-342.0497651073
 10
473.3558279179
 20
-342.082037425
 10
471.7400030472
 20
-342.4392809084
 10
470.0679405604
 20
-343.1135153283
 10
468.3769915706
 20
-344.0896794019
 10
466.7049290838
 20
-345.3459672369
 10
465.0891042131
 20
-346.854315439
 10
463.565611816
 20
-348.5810300019
 10
462.1684841952
 20
-350.4875389755
 10
460.928930873
 20
-352.5312540998
 10
459.8746414223
 20
-354.666522156
 10
459.0291669274
 20
-356.8456447841
 10
458.4113938913
 20
-359.0199439856
 10
458.0351223428
 20
-361.1408495093
 10
457.9087575665
 20
-363.1609838303
 10
458.0351223428
 20
-365.0352204862
 10
458.4113938913
 20
-366.7216921271
 10
459.0291669274
 20
-368.1827257634
 10
459.8746414223
 20
-369.385684318
 10
460.928930873
 20
-370.3036956845
 10
460.9637425883
 20
-370.3267282447
  0
ENDSEC
  0
SECTION
  2
OBJECTS
  0
DICTIONARY
  5
C
330
0
100
AcDbDictionary
281
     1
  3
ACAD_GROUP
350
D
  3
ACAD_LAYOUT
350
1A
  3
ACAD_MLINESTYLE
350
17
  3
ACAD_PLOTSETTINGS
350
19
  3
ACAD_PLOTSTYLENAME
350
E
  3
ACAD_SCALELIST
350
47
  3
DWGPROPS
350
1BB
  0
DICTIONARY
  5
D
102
{ACAD_REACTORS
330
C
102
}
330
C
100
AcDbDictionary
281
     1
  0
DICTIONARY
  5
1A
102
{ACAD_REACTORS
330
C
102
}
330
C
100
AcDbDictionary
281
     1
  3
Layout1
350
1E
  3
Layout2
350
26
  3
Model
350
22
  0
DICTIONARY
  5
17
102
{ACAD_REACTORS
330
C
102
}
330
C
100
AcDbDictionary
281
     1
  3
Standard
350
18
  0
DICTIONARY
  5
19
102
{ACAD_REACTORS
330
C
102
}
330
C
100
AcDbDictionary
281
     1
  0
ACDBDICTIONARYWDFLT
  5
E
102
{ACAD_REACTORS
330
C
102
}
330
C
100
AcDbDictionary
281
     1
  3
Normal
350
F
100
AcDbDictionaryWithDefault
340
F
  0
DICTIONARY
  5
47
102
{ACAD_REACTORS
330
C
102
}
330
C
100
AcDbDictionary
281
     1
  3
A0
350
48
  3
A1
350
49
  3
A2
350
4A
  3
A3
350
4B
  3
A4
350
4C
  3
A5
350
4D
  3
A6
350
4E
  3
A7
350
4F
  3
A8
350
50
  3
A9
350
51
  3
B0
350
52
  3
B1
350
53
  3
B2
350
54
  3
B3
350
55
  3
B4
350
56
  3
B5
350
57
  3
B6
350
58
  3
B7
350
59
  3
B8
350
5A
  3
B9
350
5B
  3
C0
350
5C
  3
C1
350
5D
  3
C2
350
5E
  3
C3
350
5F
  3
C4
350
60
  3
C5
350
61
  3
C6
350
62
  3
C7
350
63
  3
C8
350
64
  3
C9
350
65
  3
D0
350
66
  3
D1
350
67
  3
D2
350
68
  0
XRECORD
  5
1BB
102
{ACAD_REACTORS
330
C
102
}
330
C
100
AcDbXrecord
280
     1
  1
DWGPROPS COOKIE
  2

  3

  4

  6

  7

  8
b.kav
  9

300
=
301
=
302
=
303
=
304
=
305
=
306
=
307
=
308
=
309
=
 40
0.0
 41
2459741.463727292
 42
2459741.463729618
  1

 90
        0
  0
LAYOUT
  5
1E
102
{ACAD_REACTORS
330
1A
102
}
330
1A
100
AcDbPlotSettings
  1

  2
none_device
  4

  6

 40
0.0
 41
0.0
 42
0.0
 43
0.0
 44
0.0
 45
0.0
 46
0.0
 47
0.0
 48
0.0
 49
0.0
140
0.0
141
0.0
142
1.0
143
1.0
 70
   688
 72
     1
 73
     0
 74
     5
  7

 75
    16
147
1.0
148
0.0
149
0.0
100
AcDbLayout
  1
Layout1
 70
     1
 71
     1
 10
0.0
 20
0.0
 11
420.0
 21
297.0
 12
0.0
 22
0.0
 32
0.0
 14
1.0000000000E+20
 24
1.0000000000E+20
 34
1.0000000000E+20
 15
-1.0000000000E+20
 25
-1.0000000000E+20
 35
-1.0000000000E+20
146
0.0
 13
0.0
 23
0.0
 33
0.0
 16
1.0
 26
0.0
 36
0.0
 17
0.0
 27
1.0
 37
0.0
 76
     0
330
1B
  0
LAYOUT
  5
26
102
{ACAD_REACTORS
330
1A
102
}
330
1A
100
AcDbPlotSettings
  1

  2
none_device
  4

  6

 40
0.0
 41
0.0
 42
0.0
 43
0.0
 44
0.0
 45
0.0
 46
0.0
 47
0.0
 48
0.0
 49
0.0
140
0.0
141
0.0
142
1.0
143
1.0
 70
   688
 72
     1
 73
     0
 74
     5
  7

 75
    16
147
1.0
148
0.0
149
0.0
100
AcDbLayout
  1
Layout2
 70
     1
 71
     2
 10
0.0
 20
0.0
 11
0.0
 21
0.0
 12
0.0
 22
0.0
 32
0.0
 14
0.0
 24
0.0
 34
0.0
 15
0.0
 25
0.0
 35
0.0
146
0.0
 13
0.0
 23
0.0
 33
0.0
 16
1.0
 26
0.0
 36
0.0
 17
0.0
 27
1.0
 37
0.0
 76
     0
330
23
  0
LAYOUT
  5
22
102
{ACAD_REACTORS
330
1A
102
}
330
1A
100
AcDbPlotSettings
  1

  2
none_device
  4
Letter_(8.50_x_11.00_Inches)
  6

 40
6.35
 41
6.35
 42
6.35000508
 43
6.35000508
 44
215.9
 45
279.4
 46
0.0
 47
0.0
 48
0.0
 49
0.0
140
0.0
141
0.0
142
1.0
143
1.0
 70
  1712
 72
     1
 73
     0
 74
     0
  7

 75
     0
147
1.0
148
0.0
149
0.0
100
AcDbLayout
  1
Model
 70
     1
 71
     0
 10
0.0
 20
0.0
 11
279.4
 21
215.9
 12
0.0
 22
0.0
 32
0.0
 14
0.0
 24
0.0
 34
0.0
 15
279.4
 25
215.9
 35
0.0
146
0.0
 13
0.0
 23
0.0
 33
0.0
 16
1.0
 26
0.0
 36
0.0
 17
0.0
 27
1.0
 37
0.0
 76
     0
330
1F
331
29
  0
MLINESTYLE
  5
18
102
{ACAD_REACTORS
330
17
102
}
330
17
100
AcDbMlineStyle
  2
Standard
 70
     0
  3

 62
   256
 51
90.0
 52
90.0
 71
     2
 49
0.5
 62
   256
  6
BYLAYER
 49
-0.5
 62
   256
  6
BYLAYER
  0
ACDBPLACEHOLDER
  5
F
102
{ACAD_REACTORS
330
E
102
}
330
E
  0
SCALE
  5
48
102
{ACAD_REACTORS
330
47
102
}
330
47
100
AcDbScale
 70
     0
300
1:1
140
1.0
141
1.0
290
     1
  0
SCALE
  5
49
102
{ACAD_REACTORS
330
47
102
}
330
47
100
AcDbScale
 70
     0
300
1:2
140
1.0
141
2.0
290
     0
  0
SCALE
  5
4A
102
{ACAD_REACTORS
330
47
102
}
330
47
100
AcDbScale
 70
     0
300
1:4
140
1.0
141
4.0
290
     0
  0
SCALE
  5
4B
102
{ACAD_REACTORS
330
47
102
}
330
47
100
AcDbScale
 70
     0
300
1:5
140
1.0
141
5.0
290
     0
  0
SCALE
  5
4C
102
{ACAD_REACTORS
330
47
102
}
330
47
100
AcDbScale
 70
     0
300
1:8
140
1.0
141
8.0
290
     0
  0
SCALE
  5
4D
102
{ACAD_REACTORS
330
47
102
}
330
47
100
AcDbScale
 70
     0
300
1:10
140
1.0
141
10.0
290
     0
  0
SCALE
  5
4E
102
{ACAD_REACTORS
330
47
102
}
330
47
100
AcDbScale
 70
     0
300
1:16
140
1.0
141
16.0
290
     0
  0
SCALE
  5
4F
102
{ACAD_REACTORS
330
47
102
}
330
47
100
AcDbScale
 70
     0
300
1:20
140
1.0
141
20.0
290
     0
  0
SCALE
  5
50
102
{ACAD_REACTORS
330
47
102
}
330
47
100
AcDbScale
 70
     0
300
1:30
140
1.0
141
30.0
290
     0
  0
SCALE
  5
51
102
{ACAD_REACTORS
330
47
102
}
330
47
100
AcDbScale
 70
     0
300
1:40
140
1.0
141
40.0
290
     0
  0
SCALE
  5
52
102
{ACAD_REACTORS
330
47
102
}
330
47
100
AcDbScale
 70
     0
300
1:50
140
1.0
141
50.0
290
     0
  0
SCALE
  5
53
102
{ACAD_REACTORS
330
47
102
}
330
47
100
AcDbScale
 70
     0
300
1:100
140
1.0
141
100.0
290
     0
  0
SCALE
  5
54
102
{ACAD_REACTORS
330
47
102
}
330
47
100
AcDbScale
 70
     0
300
2:1
140
2.0
141
1.0
290
     0
  0
SCALE
  5
55
102
{ACAD_REACTORS
330
47
102
}
330
47
100
AcDbScale
 70
     0
300
4:1
140
4.0
141
1.0
290
     0
  0
SCALE
  5
56
102
{ACAD_REACTORS
330
47
102
}
330
47
100
AcDbScale
 70
     0
300
8:1
140
8.0
141
1.0
290
     0
  0
SCALE
  5
57
102
{ACAD_REACTORS
330
47
102
}
330
47
100
AcDbScale
 70
     0
300
10:1
140
10.0
141
1.0
290
     0
  0
SCALE
  5
58
102
{ACAD_REACTORS
330
47
102
}
330
47
100
AcDbScale
 70
     0
300
100:1
140
100.0
141
1.0
290
     0
  0
SCALE
  5
59
102
{ACAD_REACTORS
330
47
102
}
330
47
100
AcDbScale
 70
     0
300
1/128" = 1'-0"
140
0.0078125
141
12.0
290
     0
  0
SCALE
  5
5A
102
{ACAD_REACTORS
330
47
102
}
330
47
100
AcDbScale
 70
     0
300
1/64" = 1'-0"
140
0.015625
141
12.0
290
     0
  0
SCALE
  5
5B
102
{ACAD_REACTORS
330
47
102
}
330
47
100
AcDbScale
 70
     0
300
1/32" = 1'-0"
140
0.03125
141
12.0
290
     0
  0
SCALE
  5
5C
102
{ACAD_REACTORS
330
47
102
}
330
47
100
AcDbScale
 70
     0
300
1/16" = 1'-0"
140
0.0625
141
12.0
290
     0
  0
SCALE
  5
5D
102
{ACAD_REACTORS
330
47
102
}
330
47
100
AcDbScale
 70
     0
300
3/32" = 1'-0"
140
0.09375
141
12.0
290
     0
  0
SCALE
  5
5E
102
{ACAD_REACTORS
330
47
102
}
330
47
100
AcDbScale
 70
     0
300
1/8" = 1'-0"
140
0.125
141
12.0
290
     0
  0
SCALE
  5
5F
102
{ACAD_REACTORS
330
47
102
}
330
47
100
AcDbScale
 70
     0
300
3/16" = 1'-0"
140
0.1875
141
12.0
290
     0
  0
SCALE
  5
60
102
{ACAD_REACTORS
330
47
102
}
330
47
100
AcDbScale
 70
     0
300
1/4" = 1'-0"
140
0.25
141
12.0
290
     0
  0
SCALE
  5
61
102
{ACAD_REACTORS
330
47
102
}
330
47
100
AcDbScale
 70
     0
300
3/8" = 1'-0"
140
0.375
141
12.0
290
     0
  0
SCALE
  5
62
102
{ACAD_REACTORS
330
47
102
}
330
47
100
AcDbScale
 70
     0
300
1/2" = 1'-0"
140
0.5
141
12.0
290
     0
  0
SCALE
  5
63
102
{ACAD_REACTORS
330
47
102
}
330
47
100
AcDbScale
 70
     0
300
3/4" = 1'-0"
140
0.75
141
12.0
290
     0
  0
SCALE
  5
64
102
{ACAD_REACTORS
330
47
102
}
330
47
100
AcDbScale
 70
     0
300
1" = 1'-0"
140
1.0
141
12.0
290
     0
  0
SCALE
  5
65
102
{ACAD_REACTORS
330
47
102
}
330
47
100
AcDbScale
 70
     0
300
1-1/2" = 1'-0"
140
1.5
141
12.0
290
     0
  0
SCALE
  5
66
102
{ACAD_REACTORS
330
47
102
}
330
47
100
AcDbScale
 70
     0
300
3" = 1'-0"
140
3.0
141
12.0
290
     0
  0
SCALE
  5
67
102
{ACAD_REACTORS
330
47
102
}
330
47
100
AcDbScale
 70
     0
300
6" = 1'-0"
140
6.0
141
12.0
290
     0
  0
SCALE
  5
68
102
{ACAD_REACTORS
330
47
102
}
330
47
100
AcDbScale
 70
     0
300
1'-0" = 1'-0"
140
12.0
141
12.0
290
     0
  0
ENDSEC
  0
EOF
